  0
SECTION
  2
HEADER
  9
$ACADVER
  1
AC1018
  9
$ACADMAINTVER
 70
     0
  9
$DWGCODEPAGE
  3
ANSI_932
  9
$INSBASE
 10
0.0
 20
0.0
 30
0.0
  9
$EXTMIN
 10
-10940.6
 20
-4218.757612058747
 30
-140.0175
  9
$EXTMAX
 10
10400.0
 20
6131.629016408529
 30
140.0175
  9
$LIMMIN
 10
0.0
 20
0.0
  9
$LIMMAX
 10
12.0
 20
9.0
  9
$ORTHOMODE
 70
     0
  9
$REGENMODE
 70
     1
  9
$FILLMODE
 70
     1
  9
$QTEXTMODE
 70
     0
  9
$MIRRTEXT
 70
     1
  9
$LTSCALE
 40
508.0
  9
$ATTMODE
 70
     1
  9
$TEXTSIZE
 40
0.2
  9
$TRACEWID
 40
1.0
  9
$TEXTSTYLE
  7
STANDARD
  9
$CLAYER
  8
一般
  9
$CELTYPE
  6
ByLayer
  9
$CECOLOR
 62
   256
  9
$CELTSCALE
 40
1.0
  9
$DISPSILH
 70
     0
  9
$DIMSCALE
 40
1.0
  9
$DIMASZ
 40
0.18
  9
$DIMEXO
 40
0.0625
  9
$DIMDLI
 40
0.38
  9
$DIMRND
 40
0.0
  9
$DIMDLE
 40
0.0
  9
$DIMEXE
 40
0.18
  9
$DIMTP
 40
0.0
  9
$DIMTM
 40
0.0
  9
$DIMTXT
 40
0.18
  9
$DIMCEN
 40
0.09
  9
$DIMTSZ
 40
0.0
  9
$DIMTOL
 70
     0
  9
$DIMLIM
 70
     0
  9
$DIMTIH
 70
     1
  9
$DIMTOH
 70
     1
  9
$DIMSE1
 70
     0
  9
$DIMSE2
 70
     0
  9
$DIMTAD
 70
     0
  9
$DIMZIN
 70
     0
  9
$DIMBLK
  1

  9
$DIMASO
 70
     1
  9
$DIMSHO
 70
     1
  9
$DIMPOST
  1

  9
$DIMAPOST
  1

  9
$DIMALT
 70
     0
  9
$DIMALTD
 70
     2
  9
$DIMALTF
 40
25.4
  9
$DIMLFAC
 40
1.0
  9
$DIMTOFL
 70
     0
  9
$DIMTVP
 40
0.0
  9
$DIMTIX
 70
     0
  9
$DIMSOXD
 70
     0
  9
$DIMSAH
 70
     0
  9
$DIMBLK1
  1

  9
$DIMBLK2
  1

  9
$DIMSTYLE
  2
Standard
  9
$DIMCLRD
 70
     0
  9
$DIMCLRE
 70
     0
  9
$DIMCLRT
 70
     0
  9
$DIMTFAC
 40
1.0
  9
$DIMGAP
 40
0.09
  9
$DIMJUST
 70
     0
  9
$DIMSD1
 70
     0
  9
$DIMSD2
 70
     0
  9
$DIMTOLJ
 70
     1
  9
$DIMTZIN
 70
     0
  9
$DIMALTZ
 70
     0
  9
$DIMALTTZ
 70
     0
  9
$DIMUPT
 70
     0
  9
$DIMDEC
 70
     4
  9
$DIMTDEC
 70
     4
  9
$DIMALTU
 70
     2
  9
$DIMALTTD
 70
     2
  9
$DIMTXSTY
  7
STANDARD
  9
$DIMAUNIT
 70
     0
  9
$DIMADEC
 70
     0
  9
$DIMALTRND
 40
0.0
  9
$DIMAZIN
 70
     0
  9
$DIMDSEP
 70
    46
  9
$DIMATFIT
 70
     3
  9
$DIMFRAC
 70
     0
  9
$DIMLDRBLK
  1

  9
$DIMLUNIT
 70
     2
  9
$DIMLWD
 70
    -2
  9
$DIMLWE
 70
    -2
  9
$DIMTMOVE
 70
     0
  9
$LUNITS
 70
     2
  9
$LUPREC
 70
     4
  9
$SKETCHINC
 40
0.1
  9
$FILLETRAD
 40
0.5
  9
$AUNITS
 70
     0
  9
$AUPREC
 70
     0
  9
$MENU
  1
.
  9
$ELEVATION
 40
0.0
  9
$PELEVATION
 40
0.0
  9
$THICKNESS
 40
0.0
  9
$LIMCHECK
 70
     0
  9
$CHAMFERA
 40
0.5
  9
$CHAMFERB
 40
0.5
  9
$CHAMFERC
 40
1.0
  9
$CHAMFERD
 40
0.0
  9
$SKPOLY
 70
     0
  9
$TDCREATE
 40
2456477.809305382
  9
$TDUCREATE
 40
2456477.434305382
  9
$TDUPDATE
 40
2456477.809306019
  9
$TDUUPDATE
 40
2456477.434306019
  9
$TDINDWG
 40
0.0000000116
  9
$TDUSRTIMER
 40
0.0000000116
  9
$USRTIMER
 70
     1
  9
$ANGBASE
 50
0.0
  9
$ANGDIR
 70
     0
  9
$PDMODE
 70
     1
  9
$PDSIZE
 40
-2.0
  9
$PLINEWID
 40
0.0
  9
$SPLFRAME
 70
     0
  9
$SPLINETYPE
 70
     6
  9
$SPLINESEGS
 70
     8
  9
$HANDSEED
  5
261
  9
$SURFTAB1
 70
     6
  9
$SURFTAB2
 70
     6
  9
$SURFTYPE
 70
     6
  9
$SURFU
 70
     6
  9
$SURFV
 70
     6
  9
$UCSBASE
  2

  9
$UCSNAME
  2

  9
$UCSORG
 10
0.0
 20
0.0
 30
0.0
  9
$UCSXDIR
 10
1.0
 20
0.0
 30
0.0
  9
$UCSYDIR
 10
0.0
 20
1.0
 30
0.0
  9
$UCSORTHOREF
  2

  9
$UCSORTHOVIEW
 70
     0
  9
$UCSORGTOP
 10
0.0
 20
0.0
 30
0.0
  9
$UCSORGBOTTOM
 10
0.0
 20
0.0
 30
0.0
  9
$UCSORGLEFT
 10
0.0
 20
0.0
 30
0.0
  9
$UCSORGRIGHT
 10
0.0
 20
0.0
 30
0.0
  9
$UCSORGFRONT
 10
0.0
 20
0.0
 30
0.0
  9
$UCSORGBACK
 10
0.0
 20
0.0
 30
0.0
  9
$PUCSBASE
  2

  9
$PUCSNAME
  2

  9
$PUCSORG
 10
0.0
 20
0.0
 30
0.0
  9
$PUCSXDIR
 10
1.0
 20
0.0
 30
0.0
  9
$PUCSYDIR
 10
0.0
 20
1.0
 30
0.0
  9
$PUCSORTHOREF
  2

  9
$PUCSORTHOVIEW
 70
     0
  9
$PUCSORGTOP
 10
0.0
 20
0.0
 30
0.0
  9
$PUCSORGBOTTOM
 10
0.0
 20
0.0
 30
0.0
  9
$PUCSORGLEFT
 10
0.0
 20
0.0
 30
0.0
  9
$PUCSORGRIGHT
 10
0.0
 20
0.0
 30
0.0
  9
$PUCSORGFRONT
 10
0.0
 20
0.0
 30
0.0
  9
$PUCSORGBACK
 10
0.0
 20
0.0
 30
0.0
  9
$USERI1
 70
     0
  9
$USERI2
 70
     0
  9
$USERI3
 70
     0
  9
$USERI4
 70
     0
  9
$USERI5
 70
     0
  9
$USERR1
 40
0.0
  9
$USERR2
 40
0.0
  9
$USERR3
 40
0.0
  9
$USERR4
 40
0.0
  9
$USERR5
 40
0.0
  9
$WORLDVIEW
 70
     1
  9
$SHADEDGE
 70
     3
  9
$SHADEDIF
 70
    70
  9
$TILEMODE
 70
     1
  9
$MAXACTVP
 70
    64
  9
$PINSBASE
 10
0.0
 20
0.0
 30
0.0
  9
$PLIMCHECK
 70
     0
  9
$PEXTMIN
 10
1.000000000000000E+20
 20
1.000000000000000E+20
 30
1.000000000000000E+20
  9
$PEXTMAX
 10
-1.000000000000000E+20
 20
-1.000000000000000E+20
 30
-1.000000000000000E+20
  9
$PLIMMIN
 10
-20.0
 20
-7.5
  9
$PLIMMAX
 10
277.0
 20
202.5
  9
$UNITMODE
 70
     0
  9
$VISRETAIN
 70
     1
  9
$PLINEGEN
 70
     0
  9
$PSLTSCALE
 70
     1
  9
$TREEDEPTH
 70
  3020
  9
$CMLSTYLE
  2
Standard
  9
$CMLJUST
 70
     0
  9
$CMLSCALE
 40
1.0
  9
$PROXYGRAPHICS
 70
     1
  9
$MEASUREMENT
 70
     1
  9
$CELWEIGHT
370
    -1
  9
$ENDCAPS
280
     0
  9
$JOINSTYLE
280
     0
  9
$LWDISPLAY
290
     1
  9
$INSUNITS
 70
     4
  9
$HYPERLINKBASE
  1

  9
$STYLESHEET
  1

  9
$XEDIT
290
     1
  9
$CEPSNTYPE
380
     0
  9
$PSTYLEMODE
290
     1
  9
$FINGERPRINTGUID
  2
{229A1918-CDDE-4A75-B371-2AD33EC9D0C2}
  9
$VERSIONGUID
  2
{FAEB1C32-E019-11D5-929B-00C0DF256EC4}
  9
$EXTNAMES
290
     1
  9
$PSVPSCALE
 40
0.0
  9
$OLESTARTUP
290
     0
  9
$SORTENTS
280
   127
  9
$INDEXCTL
280
     0
  9
$HIDETEXT
280
     1
  9
$XCLIPFRAME
290
     0
  9
$HALOGAP
280
     0
  9
$OBSCOLOR
 70
   257
  9
$OBSLTYPE
280
     0
  9
$INTERSECTIONDISPLAY
280
     0
  9
$INTERSECTIONCOLOR
 70
   257
  9
$DIMASSOC
280
     2
  9
$PROJECTNAME
  1

  0
ENDSEC
  0
SECTION
  2
CLASSES
  0
CLASS
  1
ACDBDICTIONARYWDFLT
  2
AcDbDictionaryWithDefault
  3
ObjectDBX Classes
 90
        0
 91
        4
280
     0
281
     0
  0
CLASS
  1
VISUALSTYLE
  2
AcDbVisualStyle
  3
ObjectDBX Classes
 90
     4095
 91
        4
280
     0
281
     0
  0
CLASS
  1
MATERIAL
  2
AcDbMaterial
  3
ObjectDBX Classes
 90
     1153
 91
        4
280
     0
281
     0
  0
CLASS
  1
WIPEOUTVARIABLES
  2
AcDbWipeoutVariables
  3
WipeOut|AutoCAD Express Tool|expresstools@autodesk.com
 90
        0
 91
        4
280
     0
281
     0
  0
CLASS
  1
WIPEOUT
  2
AcDbWipeout
  3
WipeOut|AutoCAD Express Tool|expresstools@autodesk.com
 90
      127
 91
        4
280
     0
281
     1
  0
CLASS
  1
DICTIONARYVAR
  2
AcDbDictionaryVar
  3
ObjectDBX Classes
 90
        0
 91
        4
280
     0
281
     0
  0
ENDSEC
  0
SECTION
  2
TABLES
  0
TABLE
  2
VPORT
  5
8
330
0
100
AcDbSymbolTable
 70
     1
  0
VPORT
  5
29
330
8
100
AcDbSymbolTableRecord
100
AcDbViewportTableRecord
  2
*Active
 70
     0
 10
0.0
 20
0.0
 11
1.0
 21
1.0
 12
-270.3000000000011
 22
956.435702174891
 13
0.0
 23
0.0
 14
0.5
 24
0.5
 15
0.5
 25
0.5
 16
0.0
 26
0.0
 36
1.0
 17
0.0
 27
0.0
 37
0.0
 40
10350.38662846728
 41
0.0017155645864296
 42
2000.0
 43
0.0
 44
0.0
 50
0.0
 51
0.0
 71
     0
 72
   100
 73
     1
 74
     3
 75
     0
 76
     0
 77
     0
 78
     0
281
     0
 65
     1
110
0.0
120
0.0
130
0.0
111
1.0
121
0.0
131
0.0
112
0.0
122
1.0
132
0.0
 79
     0
146
0.0
  0
ENDTAB
  0
TABLE
  2
LTYPE
  5
5
330
0
100
AcDbSymbolTable
 70
    11
  0
LTYPE
  5
14
330
5
100
AcDbSymbolTableRecord
100
AcDbLinetypeTableRecord
  2
ByBlock
 70
     0
  3

 72
    65
 73
     0
 40
0.0
  0
LTYPE
  5
15
330
5
100
AcDbSymbolTableRecord
100
AcDbLinetypeTableRecord
  2
ByLayer
 70
     0
  3

 72
    65
 73
     0
 40
0.0
  0
LTYPE
  5
16
330
5
100
AcDbSymbolTableRecord
100
AcDbLinetypeTableRecord
  2
Continuous
 70
     0
  3
Solid line
 72
    65
 73
     0
 40
0.0
  0
LTYPE
  5
71
330
5
100
AcDbSymbolTableRecord
100
AcDbLinetypeTableRecord
  2
破線の種類-1
 70
     0
  3

 72
    65
 73
     2
 40
0.41664
 49
0.20828
 74
     0
 49
-0.20836
 74
     0
  0
LTYPE
  5
72
330
5
100
AcDbSymbolTableRecord
100
AcDbLinetypeTableRecord
  2
破線の種類-2
 70
     0
  3

 72
    65
 73
     2
 40
0.6944250000000001
 49
0.48607
 74
     0
 49
-0.2083550000000001
 74
     0
  0
LTYPE
  5
73
330
5
100
AcDbSymbolTableRecord
100
AcDbLinetypeTableRecord
  2
破線の種類-3
 70
     0
  3

 72
    65
 73
     2
 40
1.25
 49
1.04164
 74
     0
 49
-0.2083599999999999
 74
     0
  0
LTYPE
  5
74
330
5
100
AcDbSymbolTableRecord
100
AcDbLinetypeTableRecord
  2
破線の種類-4
 70
     0
  3

 72
    65
 73
     2
 40
1.52771
 49
1.319425
 74
     0
 49
-0.208285
 74
     0
  0
LTYPE
  5
75
330
5
100
AcDbSymbolTableRecord
100
AcDbLinetypeTableRecord
  2
破線の種類-5
 70
     0
  3

 72
    65
 73
     2
 40
0.20828
 49
0.069425
 74
     0
 49
-0.138855
 74
     0
  0
LTYPE
  5
76
330
5
100
AcDbSymbolTableRecord
100
AcDbLinetypeTableRecord
  2
破線の種類-6
 70
     0
  3

 72
    65
 73
     4
 40
1.04164
 49
0.625
 74
     0
 49
-0.20828
 74
     0
 49
0.06943
 74
     0
 49
-0.13893
 74
     0
  0
LTYPE
  5
77
330
5
100
AcDbSymbolTableRecord
100
AcDbLinetypeTableRecord
  2
破線の種類-7
 70
     0
  3

 72
    65
 73
     6
 40
1.875
 49
0.625
 74
     0
 49
-0.20828
 74
     0
 49
0.6250000000000001
 74
     0
 49
-0.2083599999999999
 74
     0
 49
0.06943
 74
     0
 49
-0.1389299999999999
 74
     0
  0
LTYPE
  5
78
330
5
100
AcDbSymbolTableRecord
100
AcDbLinetypeTableRecord
  2
破線の種類-8
 70
     0
  3

 72
    65
 73
     6
 40
1.25
 49
0.625
 74
     0
 49
-0.20828
 74
     0
 49
0.06943
 74
     0
 49
-0.13893
 74
     0
 49
0.0694299999999999
 74
     0
 49
-0.13893
 74
     0
  0
LTYPE
  5
79
330
5
100
AcDbSymbolTableRecord
100
AcDbLinetypeTableRecord
  2
破線の種類-9
 70
     0
  3

 72
    65
 73
     4
 40
5.0
 49
3.75
 74
     0
 49
-0.2777849999999998
 74
     0
 49
0.6944300000000003
 74
     0
 49
-0.2777849999999998
 74
     0
  0
LTYPE
  5
7A
330
5
100
AcDbSymbolTableRecord
100
AcDbLinetypeTableRecord
  2
破線の種類-10
 70
     0
  3

 72
    65
 73
     6
 40
5.9375
 49
3.75
 74
     0
 49
-0.2777849999999998
 74
     0
 49
0.6944300000000003
 74
     0
 49
-0.2777849999999998
 74
     0
 49
0.625
 74
     0
 49
-0.3125
 74
     0
  0
ENDTAB
  0
TABLE
  2
LAYER
  5
2
330
0
100
AcDbSymbolTable
 70
     3
  0
LAYER
  5
10
330
2
100
AcDbSymbolTableRecord
100
AcDbLayerTableRecord
  2
0
 70
     0
 62
     7
  6
Continuous
370
    -3
390
F
  0
LAYER
  5
7B
330
2
100
AcDbSymbolTableRecord
100
AcDbLayerTableRecord
  2
一般
 70
     0
 62
     7
  6
Continuous
370
     5
390
F
1001
AcCmTransparency
1071
 33554687
  0
LAYER
  5
7D
330
2
100
AcDbSymbolTableRecord
100
AcDbLayerTableRecord
  2
寸法
 70
     0
 62
     7
  6
Continuous
370
     5
390
F
1001
AcCmTransparency
1071
 33554687
  0
ENDTAB
  0
TABLE
  2
STYLE
  5
3
330
0
100
AcDbSymbolTable
 70
     2
  0
STYLE
  5
11
330
3
100
AcDbSymbolTableRecord
100
AcDbTextStyleTableRecord
  2
STANDARD
 70
     0
 40
0.0
 41
1.0
 50
0.0
 71
     0
 42
0.2
  3
txt
  4
BIGFONT.SHX
  0
STYLE
  5
70
330
3
100
AcDbSymbolTableRecord
100
AcDbTextStyleTableRecord
  2
平成明朝
 70
     0
 40
0.0
 41
1.0
 50
0.0
 71
     0
 42
0.0
  3

  4
平成明朝
1001
ACAD
1000
平成明朝
1071
        0
  0
ENDTAB
  0
TABLE
  2
VIEW
  5
6
330
0
100
AcDbSymbolTable
 70
     0
  0
ENDTAB
  0
TABLE
  2
UCS
  5
7
330
0
100
AcDbSymbolTable
 70
     0
  0
ENDTAB
  0
TABLE
  2
APPID
  5
9
330
0
100
AcDbSymbolTable
 70
     2
  0
APPID
  5
12
330
9
100
AcDbSymbolTableRecord
100
AcDbRegAppTableRecord
  2
ACAD
 70
     0
  0
APPID
  5
7C
330
9
100
AcDbSymbolTableRecord
100
AcDbRegAppTableRecord
  2
AcCmTransparency
 70
     0
  0
ENDTAB
  0
TABLE
  2
DIMSTYLE
  5
A
330
0
100
AcDbSymbolTable
 70
     1
100
AcDbDimStyleTable
  0
DIMSTYLE
105
27
330
A
100
AcDbSymbolTableRecord
100
AcDbDimStyleTableRecord
  2
Standard
 70
     0
178
     0
340
11
  0
ENDTAB
  0
TABLE
  2
BLOCK_RECORD
  5
1
330
0
100
AcDbSymbolTable
 70
    17
  0
BLOCK_RECORD
  5
1F
330
1
100
AcDbSymbolTableRecord
100
AcDbBlockTableRecord
  2
*Model_Space
340
22
  0
BLOCK_RECORD
  5
1B
330
1
100
AcDbSymbolTableRecord
100
AcDbBlockTableRecord
  2
*Paper_Space
340
1E
  0
BLOCK_RECORD
  5
3F
330
1
100
AcDbSymbolTableRecord
100
AcDbBlockTableRecord
  2
グループ-1
340
0
102
{BLKREFS
331
1BE
102
}
  0
BLOCK_RECORD
  5
42
330
1
100
AcDbSymbolTableRecord
100
AcDbBlockTableRecord
  2
グループ-2-1
340
0
102
{BLKREFS
331
1BF
102
}
  0
BLOCK_RECORD
  5
45
330
1
100
AcDbSymbolTableRecord
100
AcDbBlockTableRecord
  2
グループ-3-1
340
0
102
{BLKREFS
331
1C0
102
}
  0
BLOCK_RECORD
  5
48
330
1
100
AcDbSymbolTableRecord
100
AcDbBlockTableRecord
  2
グループ-4-1
340
0
102
{BLKREFS
331
1C1
102
}
  0
BLOCK_RECORD
  5
4B
330
1
100
AcDbSymbolTableRecord
100
AcDbBlockTableRecord
  2
グループ-5-1
340
0
102
{BLKREFS
331
1C2
102
}
  0
BLOCK_RECORD
  5
4E
330
1
100
AcDbSymbolTableRecord
100
AcDbBlockTableRecord
  2
グループ-6-1
340
0
102
{BLKREFS
331
1C3
102
}
  0
BLOCK_RECORD
  5
51
330
1
100
AcDbSymbolTableRecord
100
AcDbBlockTableRecord
  2
グループ-7-1
340
0
102
{BLKREFS
331
1D1
102
}
  0
BLOCK_RECORD
  5
54
330
1
100
AcDbSymbolTableRecord
100
AcDbBlockTableRecord
  2
グループ-8-1
340
0
102
{BLKREFS
331
1D2
102
}
  0
BLOCK_RECORD
  5
57
330
1
100
AcDbSymbolTableRecord
100
AcDbBlockTableRecord
  2
グループ-9-1
340
0
102
{BLKREFS
331
1D7
102
}
  0
BLOCK_RECORD
  5
5A
330
1
100
AcDbSymbolTableRecord
100
AcDbBlockTableRecord
  2
グループ-10-1
340
0
102
{BLKREFS
331
1D8
102
}
  0
BLOCK_RECORD
  5
5D
330
1
100
AcDbSymbolTableRecord
100
AcDbBlockTableRecord
  2
グループ-11-1
340
0
102
{BLKREFS
331
1D9
102
}
  0
BLOCK_RECORD
  5
60
330
1
100
AcDbSymbolTableRecord
100
AcDbBlockTableRecord
  2
グループ-12-1
340
0
102
{BLKREFS
331
1DA
102
}
  0
BLOCK_RECORD
  5
63
330
1
100
AcDbSymbolTableRecord
100
AcDbBlockTableRecord
  2
グループ-13-1
340
0
102
{BLKREFS
331
1DB
102
}
  0
BLOCK_RECORD
  5
66
330
1
100
AcDbSymbolTableRecord
100
AcDbBlockTableRecord
  2
グループ-14-1
340
0
102
{BLKREFS
331
1E3
102
}
  0
BLOCK_RECORD
  5
69
330
1
100
AcDbSymbolTableRecord
100
AcDbBlockTableRecord
  2
グループ-15-1
340
0
102
{BLKREFS
331
1E6
102
}
  0
BLOCK_RECORD
  5
6C
330
1
100
AcDbSymbolTableRecord
100
AcDbBlockTableRecord
  2
グループ-16-1
340
0
102
{BLKREFS
331
1F9
102
}
  0
ENDTAB
  0
ENDSEC
  0
SECTION
  2
BLOCKS
  0
BLOCK
  5
20
330
1F
100
AcDbEntity
  8
0
100
AcDbBlockBegin
  2
*Model_Space
 70
     0
 10
0.0
 20
0.0
 30
0.0
  3
*Model_Space
  1

  0
ENDBLK
  5
21
330
1F
100
AcDbEntity
  8
0
100
AcDbBlockEnd
  0
BLOCK
  5
1C
330
1B
100
AcDbEntity
 67
     1
  8
0
100
AcDbBlockBegin
  2
*Paper_Space
 70
     0
 10
0.0
 20
0.0
 30
0.0
  3
*Paper_Space
  1

  0
ENDBLK
  5
1D
330
1B
100
AcDbEntity
 67
     1
  8
0
100
AcDbBlockEnd
  0
BLOCK
  5
40
330
3F
100
AcDbEntity
  8
0
100
AcDbBlockBegin
  2
グループ-1
 70
     0
 10
0.0
 20
0.0
 30
0.0
  3
グループ-1
  1

  0
LINE
  5
7E
330
3F
100
AcDbEntity
  8
一般
  6
Continuous
 62
     7
370
    13
100
AcDbLine
 10
-965.0435465190913
 20
2529.982866135871
 30
0.0
 11
-965.0435465190913
 21
3429.98286613587
 31
0.0
  0
LINE
  5
7F
330
3F
100
AcDbEntity
  8
一般
  6
Continuous
 62
     7
370
    13
100
AcDbLine
 10
1614.956453480909
 20
2529.982866135871
 30
0.0
 11
1614.956453480909
 21
3429.98286613587
 31
0.0
  0
POLYLINE
  5
80
330
3F
100
AcDbEntity
  8
一般
  6
Continuous
 62
     7
370
    13
100
AcDb2dPolyline
 66
     1
 10
0.0
 20
0.0
 30
0.0
 70
   129
  0
VERTEX
  5
81
330
80
100
AcDbEntity
  8
一般
  6
Continuous
 62
     7
370
    13
100
AcDbVertex
100
AcDb2dVertex
 10
-985.0435465190913
 20
3449.98286613587
 30
0.0
  0
VERTEX
  5
82
330
80
100
AcDbEntity
  8
一般
  6
Continuous
 62
     7
370
    13
100
AcDbVertex
100
AcDb2dVertex
 10
1634.956453480909
 20
3449.98286613587
 30
0.0
  0
VERTEX
  5
83
330
80
100
AcDbEntity
  8
一般
  6
Continuous
 62
     7
370
    13
100
AcDbVertex
100
AcDb2dVertex
 10
1634.956453480909
 20
2509.982866135871
 30
0.0
  0
VERTEX
  5
84
330
80
100
AcDbEntity
  8
一般
  6
Continuous
 62
     7
370
    13
100
AcDbVertex
100
AcDb2dVertex
 10
-985.0435465190913
 20
2509.982866135871
 30
0.0
  0
SEQEND
  5
85
330
80
100
AcDbEntity
  8
一般
  6
Continuous
 62
     7
370
    13
  0
POLYLINE
  5
86
330
3F
100
AcDbEntity
  8
一般
  6
Continuous
 62
     7
370
    13
100
AcDb2dPolyline
 66
     1
 10
0.0
 20
0.0
 30
0.0
 70
   129
  0
VERTEX
  5
87
330
86
100
AcDbEntity
  8
一般
  6
Continuous
 62
     7
370
    13
100
AcDbVertex
100
AcDb2dVertex
 10
-965.0435465190913
 20
3429.98286613587
 30
0.0
  0
VERTEX
  5
88
330
86
100
AcDbEntity
  8
一般
  6
Continuous
 62
     7
370
    13
100
AcDbVertex
100
AcDb2dVertex
 10
309.9564534809087
 20
3429.98286613587
 30
0.0
  0
VERTEX
  5
89
330
86
100
AcDbEntity
  8
一般
  6
Continuous
 62
     7
370
    13
100
AcDbVertex
100
AcDb2dVertex
 10
309.9564534809087
 20
2529.982866135871
 30
0.0
  0
VERTEX
  5
8A
330
86
100
AcDbEntity
  8
一般
  6
Continuous
 62
     7
370
    13
100
AcDbVertex
100
AcDb2dVertex
 10
-965.0435465190913
 20
2529.982866135871
 30
0.0
  0
SEQEND
  5
8B
330
86
100
AcDbEntity
  8
一般
  6
Continuous
 62
     7
370
    13
  0
POLYLINE
  5
8C
330
3F
100
AcDbEntity
  8
一般
  6
Continuous
 62
     7
370
    13
100
AcDb2dPolyline
 66
     1
 10
0.0
 20
0.0
 30
0.0
 70
   129
  0
VERTEX
  5
8D
330
8C
100
AcDbEntity
  8
一般
  6
Continuous
 62
     7
370
    13
100
AcDbVertex
100
AcDb2dVertex
 10
309.9564534809087
 20
3429.98286613587
 30
0.0
  0
VERTEX
  5
8E
330
8C
100
AcDbEntity
  8
一般
  6
Continuous
 62
     7
370
    13
100
AcDbVertex
100
AcDb2dVertex
 10
1614.956453480909
 20
3429.98286613587
 30
0.0
  0
VERTEX
  5
8F
330
8C
100
AcDbEntity
  8
一般
  6
Continuous
 62
     7
370
    13
100
AcDbVertex
100
AcDb2dVertex
 10
1614.956453480909
 20
2529.982866135871
 30
0.0
  0
VERTEX
  5
90
330
8C
100
AcDbEntity
  8
一般
  6
Continuous
 62
     7
370
    13
100
AcDbVertex
100
AcDb2dVertex
 10
309.9564534809087
 20
2529.982866135871
 30
0.0
  0
SEQEND
  5
91
330
8C
100
AcDbEntity
  8
一般
  6
Continuous
 62
     7
370
    13
  0
POLYLINE
  5
92
330
3F
100
AcDbEntity
  8
一般
  6
Continuous
 62
     7
370
    13
100
AcDb2dPolyline
 66
     1
 10
0.0
 20
0.0
 30
0.0
 70
   129
  0
VERTEX
  5
93
330
92
100
AcDbEntity
  8
一般
  6
Continuous
 62
     7
370
    13
100
AcDbVertex
100
AcDb2dVertex
 10
339.9564534809087
 20
3399.98286613587
 30
0.0
  0
VERTEX
  5
94
330
92
100
AcDbEntity
  8
一般
  6
Continuous
 62
     7
370
    13
100
AcDbVertex
100
AcDb2dVertex
 10
1584.956453480909
 20
3399.98286613587
 30
0.0
  0
VERTEX
  5
95
330
92
100
AcDbEntity
  8
一般
  6
Continuous
 62
     7
370
    13
100
AcDbVertex
100
AcDb2dVertex
 10
1584.956453480909
 20
2559.982866135871
 30
0.0
  0
VERTEX
  5
96
330
92
100
AcDbEntity
  8
一般
  6
Continuous
 62
     7
370
    13
100
AcDbVertex
100
AcDb2dVertex
 10
339.9564534809087
 20
2559.982866135871
 30
0.0
  0
SEQEND
  5
97
330
92
100
AcDbEntity
  8
一般
  6
Continuous
 62
     7
370
    13
  0
POLYLINE
  5
98
330
3F
100
AcDbEntity
  8
一般
  6
Continuous
 62
     7
370
    13
100
AcDb2dPolyline
 66
     1
 10
0.0
 20
0.0
 30
0.0
 70
   129
  0
VERTEX
  5
99
330
98
100
AcDbEntity
  8
一般
  6
Continuous
 62
     7
370
    13
100
AcDbVertex
100
AcDb2dVertex
 10
-935.0435465190913
 20
3399.98286613587
 30
0.0
  0
VERTEX
  5
9A
330
98
100
AcDbEntity
  8
一般
  6
Continuous
 62
     7
370
    13
100
AcDbVertex
100
AcDb2dVertex
 10
309.9564534809087
 20
3399.98286613587
 30
0.0
  0
VERTEX
  5
9B
330
98
100
AcDbEntity
  8
一般
  6
Continuous
 62
     7
370
    13
100
AcDbVertex
100
AcDb2dVertex
 10
309.9564534809087
 20
2559.982866135871
 30
0.0
  0
VERTEX
  5
9C
330
98
100
AcDbEntity
  8
一般
  6
Continuous
 62
     7
370
    13
100
AcDbVertex
100
AcDb2dVertex
 10
-935.0435465190913
 20
2559.982866135871
 30
0.0
  0
SEQEND
  5
9D
330
98
100
AcDbEntity
  8
一般
  6
Continuous
 62
     7
370
    13
  0
WIPEOUT
  5
9E
330
3F
100
AcDbEntity
  8
一般
  6
Continuous
 62
     7
370
    13
 92
      152
310
98000000040000000C0000000E000000120000000C00000016000000000000C20C00000014000000010000006C0000000700000004000000686D75972C5490C0D2EB3A3AF79BA340000000000000000098928A68D37B9A40D2EB3A3AF79BA340000000000000000098928A68D37B9A40D2EB3A3AF723A34000000000000000
310
00686D75972C5490C0D2EB3A3AF723A3400000000000000000
100
AcDbWipeout
 90
        0
 10
-1045.043546519091
 20
2449.982866135871
 30
0.0
 11
2740.0
 21
0.0
 31
0.0
 12
0.0
 22
2740.0
 32
0.0
 13
1.0
 23
1.0
340
0
 70
     4
280
     1
281
    50
282
    50
283
     0
360
0
 71
     2
 91
        5
 14
-0.5
 24
0.4781021897810219
 14
0.5
 24
0.4781021897810219
 14
0.5
 24
0.5
 14
-0.5
 24
0.5
 14
-0.5
 24
0.4781021897810219
  0
POLYLINE
  5
9F
330
3F
100
AcDbEntity
  8
一般
  6
Continuous
 62
     7
370
    13
100
AcDb2dPolyline
 66
     1
 10
0.0
 20
0.0
 30
0.0
 70
   129
  0
VERTEX
  5
A0
330
9F
100
AcDbEntity
  8
一般
  6
Continuous
 62
     7
370
    13
100
AcDbVertex
100
AcDb2dVertex
 10
-1045.043546519091
 20
2509.982866135871
 30
0.0
  0
VERTEX
  5
A1
330
9F
100
AcDbEntity
  8
一般
  6
Continuous
 62
     7
370
    13
100
AcDbVertex
100
AcDb2dVertex
 10
1694.956453480909
 20
2509.982866135871
 30
0.0
  0
VERTEX
  5
A2
330
9F
100
AcDbEntity
  8
一般
  6
Continuous
 62
     7
370
    13
100
AcDbVertex
100
AcDb2dVertex
 10
1694.956453480909
 20
2449.982866135871
 30
0.0
  0
VERTEX
  5
A3
330
9F
100
AcDbEntity
  8
一般
  6
Continuous
 62
     7
370
    13
100
AcDbVertex
100
AcDb2dVertex
 10
-1045.043546519091
 20
2449.982866135871
 30
0.0
  0
SEQEND
  5
A4
330
9F
100
AcDbEntity
  8
一般
  6
Continuous
 62
     7
370
    13
  0
ENDBLK
  5
41
330
3F
100
AcDbEntity
  8
0
100
AcDbBlockEnd
  0
BLOCK
  5
43
330
42
100
AcDbEntity
  8
0
100
AcDbBlockBegin
  2
グループ-2-1
 70
     0
 10
0.0
 20
0.0
 30
0.0
  3
グループ-2-1
  1

  0
LINE
  5
A5
330
42
100
AcDbEntity
  8
一般
  6
Continuous
 62
     7
370
    13
100
AcDbLine
 10
-4605.043546519091
 20
2529.982866135871
 30
0.0
 11
-4605.043546519091
 21
3429.98286613587
 31
0.0
  0
LINE
  5
A6
330
42
100
AcDbEntity
  8
一般
  6
Continuous
 62
     7
370
    13
100
AcDbLine
 10
-2935.043546519091
 20
2529.982866135871
 30
0.0
 11
-2935.043546519091
 21
3429.98286613587
 31
0.0
  0
POLYLINE
  5
A7
330
42
100
AcDbEntity
  8
一般
  6
Continuous
 62
     7
370
    13
100
AcDb2dPolyline
 66
     1
 10
0.0
 20
0.0
 30
0.0
 70
   129
  0
VERTEX
  5
A8
330
A7
100
AcDbEntity
  8
一般
  6
Continuous
 62
     7
370
    13
100
AcDbVertex
100
AcDb2dVertex
 10
-4625.043546519091
 20
3449.98286613587
 30
0.0
  0
VERTEX
  5
A9
330
A7
100
AcDbEntity
  8
一般
  6
Continuous
 62
     7
370
    13
100
AcDbVertex
100
AcDb2dVertex
 10
-2915.043546519091
 20
3449.98286613587
 30
0.0
  0
VERTEX
  5
AA
330
A7
100
AcDbEntity
  8
一般
  6
Continuous
 62
     7
370
    13
100
AcDbVertex
100
AcDb2dVertex
 10
-2915.043546519091
 20
2509.982866135871
 30
0.0
  0
VERTEX
  5
AB
330
A7
100
AcDbEntity
  8
一般
  6
Continuous
 62
     7
370
    13
100
AcDbVertex
100
AcDb2dVertex
 10
-4625.043546519091
 20
2509.982866135871
 30
0.0
  0
SEQEND
  5
AC
330
A7
100
AcDbEntity
  8
一般
  6
Continuous
 62
     7
370
    13
  0
POLYLINE
  5
AD
330
42
100
AcDbEntity
  8
一般
  6
Continuous
 62
     7
370
    13
100
AcDb2dPolyline
 66
     1
 10
0.0
 20
0.0
 30
0.0
 70
   129
  0
VERTEX
  5
AE
330
AD
100
AcDbEntity
  8
一般
  6
Continuous
 62
     7
370
    13
100
AcDbVertex
100
AcDb2dVertex
 10
-4605.043546519091
 20
3429.98286613587
 30
0.0
  0
VERTEX
  5
AF
330
AD
100
AcDbEntity
  8
一般
  6
Continuous
 62
     7
370
    13
100
AcDbVertex
100
AcDb2dVertex
 10
-3785.043546519091
 20
3429.98286613587
 30
0.0
  0
VERTEX
  5
B0
330
AD
100
AcDbEntity
  8
一般
  6
Continuous
 62
     7
370
    13
100
AcDbVertex
100
AcDb2dVertex
 10
-3785.043546519091
 20
2529.982866135871
 30
0.0
  0
VERTEX
  5
B1
330
AD
100
AcDbEntity
  8
一般
  6
Continuous
 62
     7
370
    13
100
AcDbVertex
100
AcDb2dVertex
 10
-4605.043546519091
 20
2529.982866135871
 30
0.0
  0
SEQEND
  5
B2
330
AD
100
AcDbEntity
  8
一般
  6
Continuous
 62
     7
370
    13
  0
POLYLINE
  5
B3
330
42
100
AcDbEntity
  8
一般
  6
Continuous
 62
     7
370
    13
100
AcDb2dPolyline
 66
     1
 10
0.0
 20
0.0
 30
0.0
 70
   129
  0
VERTEX
  5
B4
330
B3
100
AcDbEntity
  8
一般
  6
Continuous
 62
     7
370
    13
100
AcDbVertex
100
AcDb2dVertex
 10
-3785.043546519091
 20
3429.98286613587
 30
0.0
  0
VERTEX
  5
B5
330
B3
100
AcDbEntity
  8
一般
  6
Continuous
 62
     7
370
    13
100
AcDbVertex
100
AcDb2dVertex
 10
-2935.043546519091
 20
3429.98286613587
 30
0.0
  0
VERTEX
  5
B6
330
B3
100
AcDbEntity
  8
一般
  6
Continuous
 62
     7
370
    13
100
AcDbVertex
100
AcDb2dVertex
 10
-2935.043546519091
 20
2529.982866135871
 30
0.0
  0
VERTEX
  5
B7
330
B3
100
AcDbEntity
  8
一般
  6
Continuous
 62
     7
370
    13
100
AcDbVertex
100
AcDb2dVertex
 10
-3785.043546519091
 20
2529.982866135871
 30
0.0
  0
SEQEND
  5
B8
330
B3
100
AcDbEntity
  8
一般
  6
Continuous
 62
     7
370
    13
  0
POLYLINE
  5
B9
330
42
100
AcDbEntity
  8
一般
  6
Continuous
 62
     7
370
    13
100
AcDb2dPolyline
 66
     1
 10
0.0
 20
0.0
 30
0.0
 70
   129
  0
VERTEX
  5
BA
330
B9
100
AcDbEntity
  8
一般
  6
Continuous
 62
     7
370
    13
100
AcDbVertex
100
AcDb2dVertex
 10
-3755.043546519091
 20
3399.98286613587
 30
0.0
  0
VERTEX
  5
BB
330
B9
100
AcDbEntity
  8
一般
  6
Continuous
 62
     7
370
    13
100
AcDbVertex
100
AcDb2dVertex
 10
-2965.043546519091
 20
3399.98286613587
 30
0.0
  0
VERTEX
  5
BC
330
B9
100
AcDbEntity
  8
一般
  6
Continuous
 62
     7
370
    13
100
AcDbVertex
100
AcDb2dVertex
 10
-2965.043546519091
 20
2559.982866135871
 30
0.0
  0
VERTEX
  5
BD
330
B9
100
AcDbEntity
  8
一般
  6
Continuous
 62
     7
370
    13
100
AcDbVertex
100
AcDb2dVertex
 10
-3755.043546519091
 20
2559.982866135871
 30
0.0
  0
SEQEND
  5
BE
330
B9
100
AcDbEntity
  8
一般
  6
Continuous
 62
     7
370
    13
  0
POLYLINE
  5
BF
330
42
100
AcDbEntity
  8
一般
  6
Continuous
 62
     7
370
    13
100
AcDb2dPolyline
 66
     1
 10
0.0
 20
0.0
 30
0.0
 70
   129
  0
VERTEX
  5
C0
330
BF
100
AcDbEntity
  8
一般
  6
Continuous
 62
     7
370
    13
100
AcDbVertex
100
AcDb2dVertex
 10
-4575.043546519091
 20
3399.98286613587
 30
0.0
  0
VERTEX
  5
C1
330
BF
100
AcDbEntity
  8
一般
  6
Continuous
 62
     7
370
    13
100
AcDbVertex
100
AcDb2dVertex
 10
-3785.043546519091
 20
3399.98286613587
 30
0.0
  0
VERTEX
  5
C2
330
BF
100
AcDbEntity
  8
一般
  6
Continuous
 62
     7
370
    13
100
AcDbVertex
100
AcDb2dVertex
 10
-3785.043546519091
 20
2559.982866135871
 30
0.0
  0
VERTEX
  5
C3
330
BF
100
AcDbEntity
  8
一般
  6
Continuous
 62
     7
370
    13
100
AcDbVertex
100
AcDb2dVertex
 10
-4575.043546519091
 20
2559.982866135871
 30
0.0
  0
SEQEND
  5
C4
330
BF
100
AcDbEntity
  8
一般
  6
Continuous
 62
     7
370
    13
  0
WIPEOUT
  5
C5
330
42
100
AcDbEntity
  8
一般
  6
Continuous
 62
     7
370
    13
 92
      152
310
98000000040000000C0000000E000000120000000C00000016000000000000C20C00000014000000010000006C00000007000000040000005A5BDD250B4DB2C0D3EB3A3AF79BA3400000000000000000B4B6BA4B164EA6C0D3EB3A3AF79BA3400000000000000000B4B6BA4B164EA6C0D3EB3A3AF723A34000000000000000
310
005A5BDD250B4DB2C0D3EB3A3AF723A3400000000000000000
100
AcDbWipeout
 90
        0
 10
-4685.043546519091
 20
2449.982866135871
 30
0.0
 11
1830.0
 21
0.0
 31
0.0
 12
0.0
 22
1830.0
 32
0.0
 13
1.0
 23
1.0
340
0
 70
     4
280
     1
281
    50
282
    50
283
     0
360
0
 71
     2
 91
        5
 14
-0.5
 24
0.4672131147540981
 14
0.5
 24
0.4672131147540981
 14
0.5
 24
0.4999999999999998
 14
-0.5
 24
0.4999999999999998
 14
-0.5
 24
0.4672131147540981
  0
POLYLINE
  5
C6
330
42
100
AcDbEntity
  8
一般
  6
Continuous
 62
     7
370
    13
100
AcDb2dPolyline
 66
     1
 10
0.0
 20
0.0
 30
0.0
 70
   129
  0
VERTEX
  5
C7
330
C6
100
AcDbEntity
  8
一般
  6
Continuous
 62
     7
370
    13
100
AcDbVertex
100
AcDb2dVertex
 10
-4685.043546519091
 20
2509.982866135871
 30
0.0
  0
VERTEX
  5
C8
330
C6
100
AcDbEntity
  8
一般
  6
Continuous
 62
     7
370
    13
100
AcDbVertex
100
AcDb2dVertex
 10
-2855.043546519091
 20
2509.982866135871
 30
0.0
  0
VERTEX
  5
C9
330
C6
100
AcDbEntity
  8
一般
  6
Continuous
 62
     7
370
    13
100
AcDbVertex
100
AcDb2dVertex
 10
-2855.043546519091
 20
2449.982866135871
 30
0.0
  0
VERTEX
  5
CA
330
C6
100
AcDbEntity
  8
一般
  6
Continuous
 62
     7
370
    13
100
AcDbVertex
100
AcDb2dVertex
 10
-4685.043546519091
 20
2449.982866135871
 30
0.0
  0
SEQEND
  5
CB
330
C6
100
AcDbEntity
  8
一般
  6
Continuous
 62
     7
370
    13
  0
ENDBLK
  5
44
330
42
100
AcDbEntity
  8
0
100
AcDbBlockEnd
  0
BLOCK
  5
46
330
45
100
AcDbEntity
  8
0
100
AcDbBlockBegin
  2
グループ-3-1
 70
     0
 10
0.0
 20
0.0
 30
0.0
  3
グループ-3-1
  1

  0
LINE
  5
CC
330
45
100
AcDbEntity
  8
一般
  6
Continuous
 62
     7
370
    13
100
AcDbLine
 10
4494.956453480909
 20
2529.982866135871
 30
0.0
 11
4494.956453480909
 21
3429.98286613587
 31
0.0
  0
LINE
  5
CD
330
45
100
AcDbEntity
  8
一般
  6
Continuous
 62
     7
370
    13
100
AcDbLine
 10
6164.956453480909
 20
2529.982866135871
 30
0.0
 11
6164.956453480909
 21
3429.98286613587
 31
0.0
  0
POLYLINE
  5
CE
330
45
100
AcDbEntity
  8
一般
  6
Continuous
 62
     7
370
    13
100
AcDb2dPolyline
 66
     1
 10
0.0
 20
0.0
 30
0.0
 70
   129
  0
VERTEX
  5
CF
330
CE
100
AcDbEntity
  8
一般
  6
Continuous
 62
     7
370
    13
100
AcDbVertex
100
AcDb2dVertex
 10
4474.956453480909
 20
3449.98286613587
 30
0.0
  0
VERTEX
  5
D0
330
CE
100
AcDbEntity
  8
一般
  6
Continuous
 62
     7
370
    13
100
AcDbVertex
100
AcDb2dVertex
 10
6184.956453480909
 20
3449.98286613587
 30
0.0
  0
VERTEX
  5
D1
330
CE
100
AcDbEntity
  8
一般
  6
Continuous
 62
     7
370
    13
100
AcDbVertex
100
AcDb2dVertex
 10
6184.956453480909
 20
2509.982866135871
 30
0.0
  0
VERTEX
  5
D2
330
CE
100
AcDbEntity
  8
一般
  6
Continuous
 62
     7
370
    13
100
AcDbVertex
100
AcDb2dVertex
 10
4474.956453480909
 20
2509.982866135871
 30
0.0
  0
SEQEND
  5
D3
330
CE
100
AcDbEntity
  8
一般
  6
Continuous
 62
     7
370
    13
  0
POLYLINE
  5
D4
330
45
100
AcDbEntity
  8
一般
  6
Continuous
 62
     7
370
    13
100
AcDb2dPolyline
 66
     1
 10
0.0
 20
0.0
 30
0.0
 70
   129
  0
VERTEX
  5
D5
330
D4
100
AcDbEntity
  8
一般
  6
Continuous
 62
     7
370
    13
100
AcDbVertex
100
AcDb2dVertex
 10
4494.956453480909
 20
3429.98286613587
 30
0.0
  0
VERTEX
  5
D6
330
D4
100
AcDbEntity
  8
一般
  6
Continuous
 62
     7
370
    13
100
AcDbVertex
100
AcDb2dVertex
 10
5314.956453480909
 20
3429.98286613587
 30
0.0
  0
VERTEX
  5
D7
330
D4
100
AcDbEntity
  8
一般
  6
Continuous
 62
     7
370
    13
100
AcDbVertex
100
AcDb2dVertex
 10
5314.956453480909
 20
2529.982866135871
 30
0.0
  0
VERTEX
  5
D8
330
D4
100
AcDbEntity
  8
一般
  6
Continuous
 62
     7
370
    13
100
AcDbVertex
100
AcDb2dVertex
 10
4494.956453480909
 20
2529.982866135871
 30
0.0
  0
SEQEND
  5
D9
330
D4
100
AcDbEntity
  8
一般
  6
Continuous
 62
     7
370
    13
  0
POLYLINE
  5
DA
330
45
100
AcDbEntity
  8
一般
  6
Continuous
 62
     7
370
    13
100
AcDb2dPolyline
 66
     1
 10
0.0
 20
0.0
 30
0.0
 70
   129
  0
VERTEX
  5
DB
330
DA
100
AcDbEntity
  8
一般
  6
Continuous
 62
     7
370
    13
100
AcDbVertex
100
AcDb2dVertex
 10
5314.956453480909
 20
3429.98286613587
 30
0.0
  0
VERTEX
  5
DC
330
DA
100
AcDbEntity
  8
一般
  6
Continuous
 62
     7
370
    13
100
AcDbVertex
100
AcDb2dVertex
 10
6164.956453480909
 20
3429.98286613587
 30
0.0
  0
VERTEX
  5
DD
330
DA
100
AcDbEntity
  8
一般
  6
Continuous
 62
     7
370
    13
100
AcDbVertex
100
AcDb2dVertex
 10
6164.956453480909
 20
2529.982866135871
 30
0.0
  0
VERTEX
  5
DE
330
DA
100
AcDbEntity
  8
一般
  6
Continuous
 62
     7
370
    13
100
AcDbVertex
100
AcDb2dVertex
 10
5314.956453480909
 20
2529.982866135871
 30
0.0
  0
SEQEND
  5
DF
330
DA
100
AcDbEntity
  8
一般
  6
Continuous
 62
     7
370
    13
  0
POLYLINE
  5
E0
330
45
100
AcDbEntity
  8
一般
  6
Continuous
 62
     7
370
    13
100
AcDb2dPolyline
 66
     1
 10
0.0
 20
0.0
 30
0.0
 70
   129
  0
VERTEX
  5
E1
330
E0
100
AcDbEntity
  8
一般
  6
Continuous
 62
     7
370
    13
100
AcDbVertex
100
AcDb2dVertex
 10
5344.956453480909
 20
3399.98286613587
 30
0.0
  0
VERTEX
  5
E2
330
E0
100
AcDbEntity
  8
一般
  6
Continuous
 62
     7
370
    13
100
AcDbVertex
100
AcDb2dVertex
 10
6134.956453480909
 20
3399.98286613587
 30
0.0
  0
VERTEX
  5
E3
330
E0
100
AcDbEntity
  8
一般
  6
Continuous
 62
     7
370
    13
100
AcDbVertex
100
AcDb2dVertex
 10
6134.956453480909
 20
2559.982866135871
 30
0.0
  0
VERTEX
  5
E4
330
E0
100
AcDbEntity
  8
一般
  6
Continuous
 62
     7
370
    13
100
AcDbVertex
100
AcDb2dVertex
 10
5344.956453480909
 20
2559.982866135871
 30
0.0
  0
SEQEND
  5
E5
330
E0
100
AcDbEntity
  8
一般
  6
Continuous
 62
     7
370
    13
  0
POLYLINE
  5
E6
330
45
100
AcDbEntity
  8
一般
  6
Continuous
 62
     7
370
    13
100
AcDb2dPolyline
 66
     1
 10
0.0
 20
0.0
 30
0.0
 70
   129
  0
VERTEX
  5
E7
330
E6
100
AcDbEntity
  8
一般
  6
Continuous
 62
     7
370
    13
100
AcDbVertex
100
AcDb2dVertex
 10
4524.956453480909
 20
3399.98286613587
 30
0.0
  0
VERTEX
  5
E8
330
E6
100
AcDbEntity
  8
一般
  6
Continuous
 62
     7
370
    13
100
AcDbVertex
100
AcDb2dVertex
 10
5314.956453480909
 20
3399.98286613587
 30
0.0
  0
VERTEX
  5
E9
330
E6
100
AcDbEntity
  8
一般
  6
Continuous
 62
     7
370
    13
100
AcDbVertex
100
AcDb2dVertex
 10
5314.956453480909
 20
2559.982866135871
 30
0.0
  0
VERTEX
  5
EA
330
E6
100
AcDbEntity
  8
一般
  6
Continuous
 62
     7
370
    13
100
AcDbVertex
100
AcDb2dVertex
 10
4524.956453480909
 20
2559.982866135871
 30
0.0
  0
SEQEND
  5
EB
330
E6
100
AcDbEntity
  8
一般
  6
Continuous
 62
     7
370
    13
  0
WIPEOUT
  5
EC
330
45
100
AcDbEntity
  8
一般
  6
Continuous
 62
     7
370
    13
 92
      152
310
98000000040000000C0000000E000000120000000C00000016000000000000C20C00000014000000010000006C0000000700000004000000A7A422DAF43EB140D3EB3A3AF79BA3400000000000000000A7A422DAF464B840D3EB3A3AF79BA3400000000000000000A7A422DAF464B840D3EB3A3AF723A34000000000000000
310
00A7A422DAF43EB140D3EB3A3AF723A3400000000000000000
100
AcDbWipeout
 90
        0
 10
4414.956453480909
 20
2449.982866135871
 30
0.0
 11
1830.0
 21
0.0
 31
0.0
 12
0.0
 22
1830.0
 32
0.0
 13
1.0
 23
1.0
340
0
 70
     4
280
     1
281
    50
282
    50
283
     0
360
0
 71
     2
 91
        5
 14
-0.4999999999999996
 24
0.4672131147540981
 14
0.5000000000000004
 24
0.4672131147540981
 14
0.5000000000000004
 24
0.4999999999999998
 14
-0.4999999999999996
 24
0.4999999999999998
 14
-0.4999999999999996
 24
0.4672131147540981
  0
POLYLINE
  5
ED
330
45
100
AcDbEntity
  8
一般
  6
Continuous
 62
     7
370
    13
100
AcDb2dPolyline
 66
     1
 10
0.0
 20
0.0
 30
0.0
 70
   129
  0
VERTEX
  5
EE
330
ED
100
AcDbEntity
  8
一般
  6
Continuous
 62
     7
370
    13
100
AcDbVertex
100
AcDb2dVertex
 10
4414.956453480909
 20
2509.982866135871
 30
0.0
  0
VERTEX
  5
EF
330
ED
100
AcDbEntity
  8
一般
  6
Continuous
 62
     7
370
    13
100
AcDbVertex
100
AcDb2dVertex
 10
6244.956453480909
 20
2509.982866135871
 30
0.0
  0
VERTEX
  5
F0
330
ED
100
AcDbEntity
  8
一般
  6
Continuous
 62
     7
370
    13
100
AcDbVertex
100
AcDb2dVertex
 10
6244.956453480909
 20
2449.982866135871
 30
0.0
  0
VERTEX
  5
F1
330
ED
100
AcDbEntity
  8
一般
  6
Continuous
 62
     7
370
    13
100
AcDbVertex
100
AcDb2dVertex
 10
4414.956453480909
 20
2449.982866135871
 30
0.0
  0
SEQEND
  5
F2
330
ED
100
AcDbEntity
  8
一般
  6
Continuous
 62
     7
370
    13
  0
ENDBLK
  5
47
330
45
100
AcDbEntity
  8
0
100
AcDbBlockEnd
  0
BLOCK
  5
49
330
48
100
AcDbEntity
  8
0
100
AcDbBlockBegin
  2
グループ-4-1
 70
     0
 10
0.0
 20
0.0
 30
0.0
  3
グループ-4-1
  1

  0
LINE
  5
F3
330
48
100
AcDbEntity
  8
一般
  6
Continuous
 62
     7
370
    13
100
AcDbLine
 10
4494.956453480909
 20
-1470.01713386413
 30
0.0
 11
4494.956453480909
 21
529.9828661358704
 31
0.0
  0
LINE
  5
F4
330
48
100
AcDbEntity
  8
一般
  6
Continuous
 62
     7
370
    13
100
AcDbLine
 10
6164.956453480909
 20
-1470.01713386413
 30
0.0
 11
6164.956453480909
 21
529.9828661358704
 31
0.0
  0
POLYLINE
  5
F5
330
48
100
AcDbEntity
  8
一般
  6
Continuous
 62
     7
370
    13
100
AcDb2dPolyline
 66
     1
 10
0.0
 20
0.0
 30
0.0
 70
   129
  0
VERTEX
  5
F6
330
F5
100
AcDbEntity
  8
一般
  6
Continuous
 62
     7
370
    13
100
AcDbVertex
100
AcDb2dVertex
 10
4474.956453480909
 20
549.9828661358704
 30
0.0
  0
VERTEX
  5
F7
330
F5
100
AcDbEntity
  8
一般
  6
Continuous
 62
     7
370
    13
100
AcDbVertex
100
AcDb2dVertex
 10
6184.956453480909
 20
549.9828661358704
 30
0.0
  0
VERTEX
  5
F8
330
F5
100
AcDbEntity
  8
一般
  6
Continuous
 62
     7
370
    13
100
AcDbVertex
100
AcDb2dVertex
 10
6184.956453480909
 20
-1490.01713386413
 30
0.0
  0
VERTEX
  5
F9
330
F5
100
AcDbEntity
  8
一般
  6
Continuous
 62
     7
370
    13
100
AcDbVertex
100
AcDb2dVertex
 10
4474.956453480909
 20
-1490.01713386413
 30
0.0
  0
SEQEND
  5
FA
330
F5
100
AcDbEntity
  8
一般
  6
Continuous
 62
     7
370
    13
  0
POLYLINE
  5
FB
330
48
100
AcDbEntity
  8
一般
  6
Continuous
 62
     7
370
    13
100
AcDb2dPolyline
 66
     1
 10
0.0
 20
0.0
 30
0.0
 70
   129
  0
VERTEX
  5
FC
330
FB
100
AcDbEntity
  8
一般
  6
Continuous
 62
     7
370
    13
100
AcDbVertex
100
AcDb2dVertex
 10
4494.956453480909
 20
529.9828661358704
 30
0.0
  0
VERTEX
  5
FD
330
FB
100
AcDbEntity
  8
一般
  6
Continuous
 62
     7
370
    13
100
AcDbVertex
100
AcDb2dVertex
 10
5314.956453480909
 20
529.9828661358704
 30
0.0
  0
VERTEX
  5
FE
330
FB
100
AcDbEntity
  8
一般
  6
Continuous
 62
     7
370
    13
100
AcDbVertex
100
AcDb2dVertex
 10
5314.956453480909
 20
-1470.01713386413
 30
0.0
  0
VERTEX
  5
FF
330
FB
100
AcDbEntity
  8
一般
  6
Continuous
 62
     7
370
    13
100
AcDbVertex
100
AcDb2dVertex
 10
4494.956453480909
 20
-1470.01713386413
 30
0.0
  0
SEQEND
  5
100
330
FB
100
AcDbEntity
  8
一般
  6
Continuous
 62
     7
370
    13
  0
POLYLINE
  5
101
330
48
100
AcDbEntity
  8
一般
  6
Continuous
 62
     7
370
    13
100
AcDb2dPolyline
 66
     1
 10
0.0
 20
0.0
 30
0.0
 70
   129
  0
VERTEX
  5
102
330
101
100
AcDbEntity
  8
一般
  6
Continuous
 62
     7
370
    13
100
AcDbVertex
100
AcDb2dVertex
 10
5314.956453480909
 20
529.9828661358704
 30
0.0
  0
VERTEX
  5
103
330
101
100
AcDbEntity
  8
一般
  6
Continuous
 62
     7
370
    13
100
AcDbVertex
100
AcDb2dVertex
 10
6164.956453480909
 20
529.9828661358704
 30
0.0
  0
VERTEX
  5
104
330
101
100
AcDbEntity
  8
一般
  6
Continuous
 62
     7
370
    13
100
AcDbVertex
100
AcDb2dVertex
 10
6164.956453480909
 20
-1470.01713386413
 30
0.0
  0
VERTEX
  5
105
330
101
100
AcDbEntity
  8
一般
  6
Continuous
 62
     7
370
    13
100
AcDbVertex
100
AcDb2dVertex
 10
5314.956453480909
 20
-1470.01713386413
 30
0.0
  0
SEQEND
  5
106
330
101
100
AcDbEntity
  8
一般
  6
Continuous
 62
     7
370
    13
  0
POLYLINE
  5
107
330
48
100
AcDbEntity
  8
一般
  6
Continuous
 62
     7
370
    13
100
AcDb2dPolyline
 66
     1
 10
0.0
 20
0.0
 30
0.0
 70
   129
  0
VERTEX
  5
108
330
107
100
AcDbEntity
  8
一般
  6
Continuous
 62
     7
370
    13
100
AcDbVertex
100
AcDb2dVertex
 10
5344.956453480909
 20
499.9828661358704
 30
0.0
  0
VERTEX
  5
109
330
107
100
AcDbEntity
  8
一般
  6
Continuous
 62
     7
370
    13
100
AcDbVertex
100
AcDb2dVertex
 10
6134.956453480909
 20
499.9828661358704
 30
0.0
  0
VERTEX
  5
10A
330
107
100
AcDbEntity
  8
一般
  6
Continuous
 62
     7
370
    13
100
AcDbVertex
100
AcDb2dVertex
 10
6134.956453480909
 20
-1370.01713386413
 30
0.0
  0
VERTEX
  5
10B
330
107
100
AcDbEntity
  8
一般
  6
Continuous
 62
     7
370
    13
100
AcDbVertex
100
AcDb2dVertex
 10
5344.956453480909
 20
-1370.01713386413
 30
0.0
  0
SEQEND
  5
10C
330
107
100
AcDbEntity
  8
一般
  6
Continuous
 62
     7
370
    13
  0
POLYLINE
  5
10D
330
48
100
AcDbEntity
  8
一般
  6
Continuous
 62
     7
370
    13
100
AcDb2dPolyline
 66
     1
 10
0.0
 20
0.0
 30
0.0
 70
   129
  0
VERTEX
  5
10E
330
10D
100
AcDbEntity
  8
一般
  6
Continuous
 62
     7
370
    13
100
AcDbVertex
100
AcDb2dVertex
 10
4524.956453480909
 20
499.9828661358704
 30
0.0
  0
VERTEX
  5
10F
330
10D
100
AcDbEntity
  8
一般
  6
Continuous
 62
     7
370
    13
100
AcDbVertex
100
AcDb2dVertex
 10
5314.956453480909
 20
499.9828661358704
 30
0.0
  0
VERTEX
  5
110
330
10D
100
AcDbEntity
  8
一般
  6
Continuous
 62
     7
370
    13
100
AcDbVertex
100
AcDb2dVertex
 10
5314.956453480909
 20
-1370.01713386413
 30
0.0
  0
VERTEX
  5
111
330
10D
100
AcDbEntity
  8
一般
  6
Continuous
 62
     7
370
    13
100
AcDbVertex
100
AcDb2dVertex
 10
4524.956453480909
 20
-1370.01713386413
 30
0.0
  0
SEQEND
  5
112
330
10D
100
AcDbEntity
  8
一般
  6
Continuous
 62
     7
370
    13
  0
WIPEOUT
  5
113
330
48
100
AcDbEntity
  8
一般
  6
Continuous
 62
     7
370
    13
 92
      152
310
98000000040000000C0000000E000000120000000C00000016000000000000C20C00000014000000010000006C0000000700000004000000A7A422DAF43EB1405E288A8B114897C00000000000000000A7A422DAF464B8405E288A8B114897C00000000000000000A7A422DAF464B8405E288A8B113898C000000000000000
310
00A7A422DAF43EB1405E288A8B113898C00000000000000000
100
AcDbWipeout
 90
        0
 10
4414.956453480909
 20
-1550.01713386413
 30
0.0
 11
1830.0
 21
0.0
 31
0.0
 12
0.0
 22
1830.0
 32
0.0
 13
1.0
 23
1.0
340
0
 70
     4
280
     1
281
    50
282
    50
283
     0
360
0
 71
     2
 91
        5
 14
-0.4999999999999996
 24
0.4672131147540983
 14
0.5000000000000004
 24
0.4672131147540983
 14
0.5000000000000004
 24
0.5
 14
-0.4999999999999996
 24
0.5
 14
-0.4999999999999996
 24
0.4672131147540983
  0
POLYLINE
  5
114
330
48
100
AcDbEntity
  8
一般
  6
Continuous
 62
     7
370
    13
100
AcDb2dPolyline
 66
     1
 10
0.0
 20
0.0
 30
0.0
 70
   129
  0
VERTEX
  5
115
330
114
100
AcDbEntity
  8
一般
  6
Continuous
 62
     7
370
    13
100
AcDbVertex
100
AcDb2dVertex
 10
4414.956453480909
 20
-1490.01713386413
 30
0.0
  0
VERTEX
  5
116
330
114
100
AcDbEntity
  8
一般
  6
Continuous
 62
     7
370
    13
100
AcDbVertex
100
AcDb2dVertex
 10
6244.956453480909
 20
-1490.01713386413
 30
0.0
  0
VERTEX
  5
117
330
114
100
AcDbEntity
  8
一般
  6
Continuous
 62
     7
370
    13
100
AcDbVertex
100
AcDb2dVertex
 10
6244.956453480909
 20
-1550.01713386413
 30
0.0
  0
VERTEX
  5
118
330
114
100
AcDbEntity
  8
一般
  6
Continuous
 62
     7
370
    13
100
AcDbVertex
100
AcDb2dVertex
 10
4414.956453480909
 20
-1550.01713386413
 30
0.0
  0
SEQEND
  5
119
330
114
100
AcDbEntity
  8
一般
  6
Continuous
 62
     7
370
    13
  0
ENDBLK
  5
4A
330
48
100
AcDbEntity
  8
0
100
AcDbBlockEnd
  0
BLOCK
  5
4C
330
4B
100
AcDbEntity
  8
0
100
AcDbBlockBegin
  2
グループ-5-1
 70
     0
 10
0.0
 20
0.0
 30
0.0
  3
グループ-5-1
  1

  0
LINE
  5
11A
330
4B
100
AcDbEntity
  8
一般
  6
Continuous
 62
     7
370
    13
100
AcDbLine
 10
-965.0435465190913
 20
-1470.01713386413
 30
0.0
 11
-965.0435465190913
 21
529.9828661358704
 31
0.0
  0
LINE
  5
11B
330
4B
100
AcDbEntity
  8
一般
  6
Continuous
 62
     7
370
    13
100
AcDbLine
 10
1614.956453480909
 20
-1470.01713386413
 30
0.0
 11
1614.956453480909
 21
529.9828661358704
 31
0.0
  0
POLYLINE
  5
11C
330
4B
100
AcDbEntity
  8
一般
  6
Continuous
 62
     7
370
    13
100
AcDb2dPolyline
 66
     1
 10
0.0
 20
0.0
 30
0.0
 70
   129
  0
VERTEX
  5
11D
330
11C
100
AcDbEntity
  8
一般
  6
Continuous
 62
     7
370
    13
100
AcDbVertex
100
AcDb2dVertex
 10
-985.0435465190913
 20
549.9828661358704
 30
0.0
  0
VERTEX
  5
11E
330
11C
100
AcDbEntity
  8
一般
  6
Continuous
 62
     7
370
    13
100
AcDbVertex
100
AcDb2dVertex
 10
1634.956453480909
 20
549.9828661358704
 30
0.0
  0
VERTEX
  5
11F
330
11C
100
AcDbEntity
  8
一般
  6
Continuous
 62
     7
370
    13
100
AcDbVertex
100
AcDb2dVertex
 10
1634.956453480909
 20
-1490.01713386413
 30
0.0
  0
VERTEX
  5
120
330
11C
100
AcDbEntity
  8
一般
  6
Continuous
 62
     7
370
    13
100
AcDbVertex
100
AcDb2dVertex
 10
-985.0435465190913
 20
-1490.01713386413
 30
0.0
  0
SEQEND
  5
121
330
11C
100
AcDbEntity
  8
一般
  6
Continuous
 62
     7
370
    13
  0
POLYLINE
  5
122
330
4B
100
AcDbEntity
  8
一般
  6
Continuous
 62
     7
370
    13
100
AcDb2dPolyline
 66
     1
 10
0.0
 20
0.0
 30
0.0
 70
   129
  0
VERTEX
  5
123
330
122
100
AcDbEntity
  8
一般
  6
Continuous
 62
     7
370
    13
100
AcDbVertex
100
AcDb2dVertex
 10
-965.0435465190913
 20
529.9828661358704
 30
0.0
  0
VERTEX
  5
124
330
122
100
AcDbEntity
  8
一般
  6
Continuous
 62
     7
370
    13
100
AcDbVertex
100
AcDb2dVertex
 10
309.9564534809087
 20
529.9828661358704
 30
0.0
  0
VERTEX
  5
125
330
122
100
AcDbEntity
  8
一般
  6
Continuous
 62
     7
370
    13
100
AcDbVertex
100
AcDb2dVertex
 10
309.9564534809087
 20
-1470.01713386413
 30
0.0
  0
VERTEX
  5
126
330
122
100
AcDbEntity
  8
一般
  6
Continuous
 62
     7
370
    13
100
AcDbVertex
100
AcDb2dVertex
 10
-965.0435465190913
 20
-1470.01713386413
 30
0.0
  0
SEQEND
  5
127
330
122
100
AcDbEntity
  8
一般
  6
Continuous
 62
     7
370
    13
  0
POLYLINE
  5
128
330
4B
100
AcDbEntity
  8
一般
  6
Continuous
 62
     7
370
    13
100
AcDb2dPolyline
 66
     1
 10
0.0
 20
0.0
 30
0.0
 70
   129
  0
VERTEX
  5
129
330
128
100
AcDbEntity
  8
一般
  6
Continuous
 62
     7
370
    13
100
AcDbVertex
100
AcDb2dVertex
 10
309.9564534809087
 20
529.9828661358704
 30
0.0
  0
VERTEX
  5
12A
330
128
100
AcDbEntity
  8
一般
  6
Continuous
 62
     7
370
    13
100
AcDbVertex
100
AcDb2dVertex
 10
1614.956453480909
 20
529.9828661358704
 30
0.0
  0
VERTEX
  5
12B
330
128
100
AcDbEntity
  8
一般
  6
Continuous
 62
     7
370
    13
100
AcDbVertex
100
AcDb2dVertex
 10
1614.956453480909
 20
-1470.01713386413
 30
0.0
  0
VERTEX
  5
12C
330
128
100
AcDbEntity
  8
一般
  6
Continuous
 62
     7
370
    13
100
AcDbVertex
100
AcDb2dVertex
 10
309.9564534809087
 20
-1470.01713386413
 30
0.0
  0
SEQEND
  5
12D
330
128
100
AcDbEntity
  8
一般
  6
Continuous
 62
     7
370
    13
  0
POLYLINE
  5
12E
330
4B
100
AcDbEntity
  8
一般
  6
Continuous
 62
     7
370
    13
100
AcDb2dPolyline
 66
     1
 10
0.0
 20
0.0
 30
0.0
 70
   129
  0
VERTEX
  5
12F
330
12E
100
AcDbEntity
  8
一般
  6
Continuous
 62
     7
370
    13
100
AcDbVertex
100
AcDb2dVertex
 10
339.9564534809087
 20
499.9828661358704
 30
0.0
  0
VERTEX
  5
130
330
12E
100
AcDbEntity
  8
一般
  6
Continuous
 62
     7
370
    13
100
AcDbVertex
100
AcDb2dVertex
 10
1584.956453480909
 20
499.9828661358704
 30
0.0
  0
VERTEX
  5
131
330
12E
100
AcDbEntity
  8
一般
  6
Continuous
 62
     7
370
    13
100
AcDbVertex
100
AcDb2dVertex
 10
1584.956453480909
 20
-1370.01713386413
 30
0.0
  0
VERTEX
  5
132
330
12E
100
AcDbEntity
  8
一般
  6
Continuous
 62
     7
370
    13
100
AcDbVertex
100
AcDb2dVertex
 10
339.9564534809087
 20
-1370.01713386413
 30
0.0
  0
SEQEND
  5
133
330
12E
100
AcDbEntity
  8
一般
  6
Continuous
 62
     7
370
    13
  0
POLYLINE
  5
134
330
4B
100
AcDbEntity
  8
一般
  6
Continuous
 62
     7
370
    13
100
AcDb2dPolyline
 66
     1
 10
0.0
 20
0.0
 30
0.0
 70
   129
  0
VERTEX
  5
135
330
134
100
AcDbEntity
  8
一般
  6
Continuous
 62
     7
370
    13
100
AcDbVertex
100
AcDb2dVertex
 10
-935.0435465190913
 20
499.9828661358704
 30
0.0
  0
VERTEX
  5
136
330
134
100
AcDbEntity
  8
一般
  6
Continuous
 62
     7
370
    13
100
AcDbVertex
100
AcDb2dVertex
 10
309.9564534809087
 20
499.9828661358704
 30
0.0
  0
VERTEX
  5
137
330
134
100
AcDbEntity
  8
一般
  6
Continuous
 62
     7
370
    13
100
AcDbVertex
100
AcDb2dVertex
 10
309.9564534809087
 20
-1370.01713386413
 30
0.0
  0
VERTEX
  5
138
330
134
100
AcDbEntity
  8
一般
  6
Continuous
 62
     7
370
    13
100
AcDbVertex
100
AcDb2dVertex
 10
-935.0435465190913
 20
-1370.01713386413
 30
0.0
  0
SEQEND
  5
139
330
134
100
AcDbEntity
  8
一般
  6
Continuous
 62
     7
370
    13
  0
WIPEOUT
  5
13A
330
4B
100
AcDbEntity
  8
一般
  6
Continuous
 62
     7
370
    13
 92
      152
310
98000000040000000C0000000E000000120000000C00000016000000000000C20C00000014000000010000006C0000000700000004000000686D75972C5490C05D288A8B114897C0000000000000000098928A68D37B9A405D288A8B114897C0000000000000000098928A68D37B9A405E288A8B113898C000000000000000
310
00686D75972C5490C05E288A8B113898C00000000000000000
100
AcDbWipeout
 90
        0
 10
-1045.043546519091
 20
-1550.01713386413
 30
0.0
 11
2740.0
 21
0.0
 31
0.0
 12
0.0
 22
2740.0
 32
0.0
 13
1.0
 23
1.0
340
0
 70
     4
280
     1
281
    50
282
    50
283
     0
360
0
 71
     2
 91
        5
 14
-0.5
 24
0.4781021897810218
 14
0.5
 24
0.4781021897810218
 14
0.5
 24
0.5
 14
-0.5
 24
0.5
 14
-0.5
 24
0.4781021897810218
  0
POLYLINE
  5
13B
330
4B
100
AcDbEntity
  8
一般
  6
Continuous
 62
     7
370
    13
100
AcDb2dPolyline
 66
     1
 10
0.0
 20
0.0
 30
0.0
 70
   129
  0
VERTEX
  5
13C
330
13B
100
AcDbEntity
  8
一般
  6
Continuous
 62
     7
370
    13
100
AcDbVertex
100
AcDb2dVertex
 10
-1045.043546519091
 20
-1490.01713386413
 30
0.0
  0
VERTEX
  5
13D
330
13B
100
AcDbEntity
  8
一般
  6
Continuous
 62
     7
370
    13
100
AcDbVertex
100
AcDb2dVertex
 10
1694.956453480909
 20
-1490.01713386413
 30
0.0
  0
VERTEX
  5
13E
330
13B
100
AcDbEntity
  8
一般
  6
Continuous
 62
     7
370
    13
100
AcDbVertex
100
AcDb2dVertex
 10
1694.956453480909
 20
-1550.01713386413
 30
0.0
  0
VERTEX
  5
13F
330
13B
100
AcDbEntity
  8
一般
  6
Continuous
 62
     7
370
    13
100
AcDbVertex
100
AcDb2dVertex
 10
-1045.043546519091
 20
-1550.01713386413
 30
0.0
  0
SEQEND
  5
140
330
13B
100
AcDbEntity
  8
一般
  6
Continuous
 62
     7
370
    13
  0
ENDBLK
  5
4D
330
4B
100
AcDbEntity
  8
0
100
AcDbBlockEnd
  0
BLOCK
  5
4F
330
4E
100
AcDbEntity
  8
0
100
AcDbBlockBegin
  2
グループ-6-1
 70
     0
 10
0.0
 20
0.0
 30
0.0
  3
グループ-6-1
  1

  0
LINE
  5
141
330
4E
100
AcDbEntity
  8
一般
  6
Continuous
 62
     7
370
    13
100
AcDbLine
 10
-4605.043546519091
 20
-1470.01713386413
 30
0.0
 11
-4605.043546519091
 21
529.9828661358704
 31
0.0
  0
LINE
  5
142
330
4E
100
AcDbEntity
  8
一般
  6
Continuous
 62
     7
370
    13
100
AcDbLine
 10
-2935.043546519091
 20
-1470.01713386413
 30
0.0
 11
-2935.043546519091
 21
529.9828661358704
 31
0.0
  0
POLYLINE
  5
143
330
4E
100
AcDbEntity
  8
一般
  6
Continuous
 62
     7
370
    13
100
AcDb2dPolyline
 66
     1
 10
0.0
 20
0.0
 30
0.0
 70
   129
  0
VERTEX
  5
144
330
143
100
AcDbEntity
  8
一般
  6
Continuous
 62
     7
370
    13
100
AcDbVertex
100
AcDb2dVertex
 10
-4625.043546519091
 20
549.9828661358704
 30
0.0
  0
VERTEX
  5
145
330
143
100
AcDbEntity
  8
一般
  6
Continuous
 62
     7
370
    13
100
AcDbVertex
100
AcDb2dVertex
 10
-2915.043546519091
 20
549.9828661358704
 30
0.0
  0
VERTEX
  5
146
330
143
100
AcDbEntity
  8
一般
  6
Continuous
 62
     7
370
    13
100
AcDbVertex
100
AcDb2dVertex
 10
-2915.043546519091
 20
-1490.01713386413
 30
0.0
  0
VERTEX
  5
147
330
143
100
AcDbEntity
  8
一般
  6
Continuous
 62
     7
370
    13
100
AcDbVertex
100
AcDb2dVertex
 10
-4625.043546519091
 20
-1490.01713386413
 30
0.0
  0
SEQEND
  5
148
330
143
100
AcDbEntity
  8
一般
  6
Continuous
 62
     7
370
    13
  0
POLYLINE
  5
149
330
4E
100
AcDbEntity
  8
一般
  6
Continuous
 62
     7
370
    13
100
AcDb2dPolyline
 66
     1
 10
0.0
 20
0.0
 30
0.0
 70
   129
  0
VERTEX
  5
14A
330
149
100
AcDbEntity
  8
一般
  6
Continuous
 62
     7
370
    13
100
AcDbVertex
100
AcDb2dVertex
 10
-4605.043546519091
 20
529.9828661358704
 30
0.0
  0
VERTEX
  5
14B
330
149
100
AcDbEntity
  8
一般
  6
Continuous
 62
     7
370
    13
100
AcDbVertex
100
AcDb2dVertex
 10
-3785.043546519091
 20
529.9828661358704
 30
0.0
  0
VERTEX
  5
14C
330
149
100
AcDbEntity
  8
一般
  6
Continuous
 62
     7
370
    13
100
AcDbVertex
100
AcDb2dVertex
 10
-3785.043546519091
 20
-1470.01713386413
 30
0.0
  0
VERTEX
  5
14D
330
149
100
AcDbEntity
  8
一般
  6
Continuous
 62
     7
370
    13
100
AcDbVertex
100
AcDb2dVertex
 10
-4605.043546519091
 20
-1470.01713386413
 30
0.0
  0
SEQEND
  5
14E
330
149
100
AcDbEntity
  8
一般
  6
Continuous
 62
     7
370
    13
  0
POLYLINE
  5
14F
330
4E
100
AcDbEntity
  8
一般
  6
Continuous
 62
     7
370
    13
100
AcDb2dPolyline
 66
     1
 10
0.0
 20
0.0
 30
0.0
 70
   129
  0
VERTEX
  5
150
330
14F
100
AcDbEntity
  8
一般
  6
Continuous
 62
     7
370
    13
100
AcDbVertex
100
AcDb2dVertex
 10
-3785.043546519091
 20
529.9828661358704
 30
0.0
  0
VERTEX
  5
151
330
14F
100
AcDbEntity
  8
一般
  6
Continuous
 62
     7
370
    13
100
AcDbVertex
100
AcDb2dVertex
 10
-2935.043546519091
 20
529.9828661358704
 30
0.0
  0
VERTEX
  5
152
330
14F
100
AcDbEntity
  8
一般
  6
Continuous
 62
     7
370
    13
100
AcDbVertex
100
AcDb2dVertex
 10
-2935.043546519091
 20
-1470.01713386413
 30
0.0
  0
VERTEX
  5
153
330
14F
100
AcDbEntity
  8
一般
  6
Continuous
 62
     7
370
    13
100
AcDbVertex
100
AcDb2dVertex
 10
-3785.043546519091
 20
-1470.01713386413
 30
0.0
  0
SEQEND
  5
154
330
14F
100
AcDbEntity
  8
一般
  6
Continuous
 62
     7
370
    13
  0
POLYLINE
  5
155
330
4E
100
AcDbEntity
  8
一般
  6
Continuous
 62
     7
370
    13
100
AcDb2dPolyline
 66
     1
 10
0.0
 20
0.0
 30
0.0
 70
   129
  0
VERTEX
  5
156
330
155
100
AcDbEntity
  8
一般
  6
Continuous
 62
     7
370
    13
100
AcDbVertex
100
AcDb2dVertex
 10
-3755.043546519091
 20
499.9828661358704
 30
0.0
  0
VERTEX
  5
157
330
155
100
AcDbEntity
  8
一般
  6
Continuous
 62
     7
370
    13
100
AcDbVertex
100
AcDb2dVertex
 10
-2965.043546519091
 20
499.9828661358704
 30
0.0
  0
VERTEX
  5
158
330
155
100
AcDbEntity
  8
一般
  6
Continuous
 62
     7
370
    13
100
AcDbVertex
100
AcDb2dVertex
 10
-2965.043546519091
 20
-1370.01713386413
 30
0.0
  0
VERTEX
  5
159
330
155
100
AcDbEntity
  8
一般
  6
Continuous
 62
     7
370
    13
100
AcDbVertex
100
AcDb2dVertex
 10
-3755.043546519091
 20
-1370.01713386413
 30
0.0
  0
SEQEND
  5
15A
330
155
100
AcDbEntity
  8
一般
  6
Continuous
 62
     7
370
    13
  0
POLYLINE
  5
15B
330
4E
100
AcDbEntity
  8
一般
  6
Continuous
 62
     7
370
    13
100
AcDb2dPolyline
 66
     1
 10
0.0
 20
0.0
 30
0.0
 70
   129
  0
VERTEX
  5
15C
330
15B
100
AcDbEntity
  8
一般
  6
Continuous
 62
     7
370
    13
100
AcDbVertex
100
AcDb2dVertex
 10
-4575.043546519091
 20
499.9828661358704
 30
0.0
  0
VERTEX
  5
15D
330
15B
100
AcDbEntity
  8
一般
  6
Continuous
 62
     7
370
    13
100
AcDbVertex
100
AcDb2dVertex
 10
-3785.043546519091
 20
499.9828661358704
 30
0.0
  0
VERTEX
  5
15E
330
15B
100
AcDbEntity
  8
一般
  6
Continuous
 62
     7
370
    13
100
AcDbVertex
100
AcDb2dVertex
 10
-3785.043546519091
 20
-1370.01713386413
 30
0.0
  0
VERTEX
  5
15F
330
15B
100
AcDbEntity
  8
一般
  6
Continuous
 62
     7
370
    13
100
AcDbVertex
100
AcDb2dVertex
 10
-4575.043546519091
 20
-1370.01713386413
 30
0.0
  0
SEQEND
  5
160
330
15B
100
AcDbEntity
  8
一般
  6
Continuous
 62
     7
370
    13
  0
WIPEOUT
  5
161
330
4E
100
AcDbEntity
  8
一般
  6
Continuous
 62
     7
370
    13
 92
      152
310
98000000040000000C0000000E000000120000000C00000016000000000000C20C00000014000000010000006C00000007000000040000005A5BDD250B4DB2C05E288A8B114897C00000000000000000B4B6BA4B164EA6C05E288A8B114897C00000000000000000B4B6BA4B164EA6C05E288A8B113898C000000000000000
310
005A5BDD250B4DB2C05E288A8B113898C00000000000000000
100
AcDbWipeout
 90
        0
 10
-4685.043546519091
 20
-1550.01713386413
 30
0.0
 11
1830.0
 21
0.0
 31
0.0
 12
0.0
 22
1830.0
 32
0.0
 13
1.0
 23
1.0
340
0
 70
     4
280
     1
281
    50
282
    50
283
     0
360
0
 71
     2
 91
        5
 14
-0.5
 24
0.4672131147540983
 14
0.5
 24
0.4672131147540983
 14
0.5
 24
0.5
 14
-0.5
 24
0.5
 14
-0.5
 24
0.4672131147540983
  0
POLYLINE
  5
162
330
4E
100
AcDbEntity
  8
一般
  6
Continuous
 62
     7
370
    13
100
AcDb2dPolyline
 66
     1
 10
0.0
 20
0.0
 30
0.0
 70
   129
  0
VERTEX
  5
163
330
162
100
AcDbEntity
  8
一般
  6
Continuous
 62
     7
370
    13
100
AcDbVertex
100
AcDb2dVertex
 10
-4685.043546519091
 20
-1490.01713386413
 30
0.0
  0
VERTEX
  5
164
330
162
100
AcDbEntity
  8
一般
  6
Continuous
 62
     7
370
    13
100
AcDbVertex
100
AcDb2dVertex
 10
-2855.043546519091
 20
-1490.01713386413
 30
0.0
  0
VERTEX
  5
165
330
162
100
AcDbEntity
  8
一般
  6
Continuous
 62
     7
370
    13
100
AcDbVertex
100
AcDb2dVertex
 10
-2855.043546519091
 20
-1550.01713386413
 30
0.0
  0
VERTEX
  5
166
330
162
100
AcDbEntity
  8
一般
  6
Continuous
 62
     7
370
    13
100
AcDbVertex
100
AcDb2dVertex
 10
-4685.043546519091
 20
-1550.01713386413
 30
0.0
  0
SEQEND
  5
167
330
162
100
AcDbEntity
  8
一般
  6
Continuous
 62
     7
370
    13
  0
ENDBLK
  5
50
330
4E
100
AcDbEntity
  8
0
100
AcDbBlockEnd
  0
BLOCK
  5
52
330
51
100
AcDbEntity
  8
0
100
AcDbBlockBegin
  2
グループ-7-1
 70
     0
 10
0.0
 20
0.0
 30
0.0
  3
グループ-7-1
  1

  0
WIPEOUT
  5
168
330
51
100
AcDbEntity
  8
一般
  6
Continuous
 62
     7
370
    13
 92
     1592
310
38060000040000000C0000000E000000120000000C00000016000000000000C20C00000014000000010000000C06000007000000400000005C5BDD250B64B9C06027DDF2C17AB0C00000000000000000855C631A408BB9C0B0DD5CDDD478B0C0000000000000000082259A6514B2B9C067BB845C1273B0C000000000000000
310
007D12824C28D8B9C09DD499A38869B0C00000000000000000FD1E6FEE1DFDB9C0461F7B364F5CB0C00000000000000000DF867B2C9A20BAC0A3F0A7AF864BB0C00000000000000000795F2E8A4542BAC0445EDE6F5837B0C000000000000000004F4D2C05CD61BAC003AF1738F61FB0C00000000000000000C691DEE1E27E
310
BAC0CC5DDEAE9905B0C00000000000000000FEE2176B3F99BAC0AB3258A407D1AFC000000000000000004092DEA2A1B0BAC0FC565CAEF891AFC000000000000000009E24A8E2CFC4BAC0C6A5F6F2A14EAFC0000000000000000041537B6998D5BAC005D6DD76A907AFC0000000000000000097089AD6D1E2BAC005BD0333BE
310
BDAEC0000000000000000061EF848F5BECBAC00FE333659671AEC00000000000000000AC115D101EF2BAC01451C6CEED23AEC000000000000000005C5BDD250BF4BAC0C04EBAE583D5ADC00000000000000000AC115D101EF2BAC06E4CAEFC1987ADC0000000000000000061EF848F5BECBAC072BA40667139ADC000000000
310
0000000097089AD6D1E2BAC07CE0709849EDACC0000000000000000041537B6998D5BAC07BC796545EA3ACC000000000000000009E24A8E2CFC4BAC0BAF77DD8655CACC000000000000000004092DEA2A1B0BAC08446181D0F19ACC00000000000000000FEE2176B3F99BAC0D76A1C2700DAABC00000000000000000C691DE
310
E1E27EBAC0E9E1B76DD49FABC000000000000000004F4D2C05CD61BAC07B3F455B1B6BABC00000000000000000795F2E8A4542BAC0F7E0B7EB563CABC00000000000000000DF867B2C9A20BAC03ABC246CFA13ABC00000000000000000FD1E6FEE1DFDB9C0F55E7E5E69F2AAC000000000000000007D12824C28D8B9C047F4
310
4084F6D7AAC0000000000000000082259A6514B2B9C0B3266B12E3C4AAC00000000000000000855C631A408BB9C020E2BA105EB9AAC000000000000000005C5BDD250B64B9C0C04EBAE583B5AAC00000000000000000315A5731D63CB9C020E2BA105EB9AAC00000000000000000359120E60116B9C0B3266B12E3C4AAC000
310
0000000000000039A438FFEDEFB8C047F44084F6D7AAC00000000000000000B8974B5DF8CAB8C0F55E7E5E69F2AAC00000000000000000D82F3F1F7CA7B8C03ABC246CFA13ABC000000000000000003D578CC1D085B8C0F7E0B7EB563CABC0000000000000000066698E464966B8C07B3F455B1B6BABC00000000000000000
310
F024DC693349B8C0E9E1B76DD49FABC00000000000000000B8D3A2E0D62EB8C0D76A1C2700DAABC000000000000000007724DCA87417B8C08446181D0F19ACC00000000000000000189212694603B8C0BAF77DD8655CACC0000000000000000075633FE27DF2B7C07BC796545EA3ACC000000000000000001EAE207544E5B7
310
C07CE0709849EDACC0000000000000000054C735BCBADBB7C072BA40667139ADC000000000000000000BA55D3BF8D5B7C06E4CAEFC1987ADC000000000000000005B5BDD250BD4B7C0C04EBAE583D5ADC000000000000000000BA55D3BF8D5B7C01451C6CEED23AEC0000000000000000054C735BCBADBB7C00FE333659671
310
AEC000000000000000001EAE207544E5B7C005BD0333BEBDAEC0000000000000000075633FE27DF2B7C005D6DD76A907AFC00000000000000000189212694603B8C0C6A5F6F2A14EAFC000000000000000007724DCA87417B8C0FC565CAEF891AFC00000000000000000B8D3A2E0D62EB8C0AB3258A407D1AFC00000000000
310
000000F024DC693349B8C0CC5DDEAE9905B0C0000000000000000066698E464966B8C003AF1738F61FB0C000000000000000003D578CC1D085B8C0445EDE6F5837B0C00000000000000000D82F3F1F7CA7B8C0A3F0A7AF864BB0C00000000000000000B8974B5DF8CAB8C0461F7B364F5CB0C0000000000000000039A438FF
310
EDEFB8C09DD499A38869B0C00000000000000000359120E60116B9C067BB845C1273B0C00000000000000000315A5731D63CB9C0B0DD5CDDD478B0C00000000000000000
100
AcDbWipeout
 90
        0
 10
-6900.043546519091
 20
-4218.757612058747
 30
0.0
 11
800.0
 21
0.0
 31
0.0
 12
0.0
 22
800.0
 32
0.0
 13
1.0
 23
1.0
340
0
 70
     4
280
     1
281
    50
282
    50
283
     0
360
0
 71
     2
 91
       65
 14
-0.0000000000000018
 24
0.5
 14
-0.0490085701647818
 24
0.4975923633360981
 14
-0.0975451610080658
 24
0.4903926402016161
 14
-0.1451423386272328
 24
0.4784701678661047
 14
-0.1913417161825457
 24
0.4619397662556439
 14
-0.2356983684130007
 24
0.4409606321741775
 14
-0.2777851165098024
 24
0.4157348061512725
 14
-0.3171966420818233
 24
0.3865052266813693
 14
-0.3535533905932748
 24
0.3535533905932748
 14
-0.3865052266813702
 24
0.3171966420818233
 14
-0.4157348061512742
 24
0.2777851165098015
 14
-0.4409606321741784
 24
0.235698368412999
 14
-0.4619397662556448
 24
0.1913417161825448
 14
-0.4784701678661047
 24
0.1451423386272319
 14
-0.4903926402016161
 24
0.0975451610080649
 14
-0.4975923633360999
 24
0.0490085701647809
 14
-0.5000000000000018
 24
0.0
 14
-0.4975923633360999
 24
-0.04900857016478
 14
-0.4903926402016161
 24
-0.097545161008064
 14
-0.4784701678661047
 24
-0.145142338627231
 14
-0.4619397662556448
 24
-0.1913417161825448
 14
-0.4409606321741784
 24
-0.235698368412999
 14
-0.4157348061512742
 24
-0.2777851165098015
 14
-0.3865052266813702
 24
-0.3171966420818224
 14
-0.3535533905932748
 24
-0.353553390593274
 14
-0.3171966420818233
 24
-0.3865052266813684
 14
-0.2777851165098024
 24
-0.4157348061512725
 14
-0.2356983684130007
 24
-0.4409606321741775
 14
-0.1913417161825457
 24
-0.461939766255643
 14
-0.1451423386272328
 24
-0.4784701678661039
 14
-0.0975451610080658
 24
-0.4903926402016152
 14
-0.0490085701647818
 24
-0.4975923633360981
 14
-0.0000000000000018
 24
-0.5
 14
0.04900857016478
 24
-0.4975923633360981
 14
0.0975451610080622
 24
-0.4903926402016152
 14
0.1451423386272301
 24
-0.4784701678661039
 14
0.1913417161825439
 24
-0.461939766255643
 14
0.2356983684129981
 24
-0.4409606321741775
 14
0.2777851165097998
 24
-0.4157348061512725
 14
0.3171966420818215
 24
-0.3865052266813684
 14
0.3535533905932722
 24
-0.353553390593274
 14
0.3865052266813676
 24
-0.3171966420818224
 14
0.4157348061512707
 24
-0.2777851165098015
 14
0.4409606321741757
 24
-0.235698368412999
 14
0.4619397662556421
 24
-0.1913417161825448
 14
0.478470167866103
 24
-0.145142338627231
 14
0.4903926402016143
 24
-0.097545161008064
 14
0.4975923633360972
 24
-0.04900857016478
 14
0.4999999999999991
 24
0.0
 14
0.4975923633360972
 24
0.0490085701647809
 14
0.4903926402016143
 24
0.0975451610080649
 14
0.478470167866103
 24
0.1451423386272319
 14
0.4619397662556421
 24
0.1913417161825448
 14
0.4409606321741757
 24
0.235698368412999
 14
0.4157348061512707
 24
0.2777851165098015
 14
0.3865052266813676
 24
0.3171966420818233
 14
0.3535533905932722
 24
0.3535533905932748
 14
0.3171966420818215
 24
0.3865052266813693
 14
0.2777851165097998
 24
0.4157348061512725
 14
0.2356983684129981
 24
0.4409606321741775
 14
0.1913417161825439
 24
0.4619397662556439
 14
0.1451423386272301
 24
0.4784701678661047
 14
0.0975451610080622
 24
0.4903926402016161
 14
0.04900857016478
 24
0.4975923633360981
 14
-0.0000000000000018
 24
0.5
  0
CIRCLE
  5
169
330
51
100
AcDbEntity
  8
一般
  6
Continuous
 62
     7
370
    13
100
AcDbCircle
 10
-6500.043546519091
 20
-3818.757612058747
 30
0.0
 40
400.0
  0
MTEXT
  5
16A
330
51
100
AcDbEntity
  8
一般
 62
     7
100
AcDbMText
 10
-6500.043546519091
 20
-3818.757612058747
 30
0.0
 40
217.1788194444445
 41
415.925
 71
     5
 72
     1
  1
{\f平成明朝|b0|i0|c128|p0;X1}
 73
     1
 44
0.7828267384257843
  0
ENDBLK
  5
53
330
51
100
AcDbEntity
  8
0
100
AcDbBlockEnd
  0
BLOCK
  5
55
330
54
100
AcDbEntity
  8
0
100
AcDbBlockBegin
  2
グループ-8-1
 70
     0
 10
0.0
 20
0.0
 30
0.0
  3
グループ-8-1
  1

  0
WIPEOUT
  5
16B
330
54
100
AcDbEntity
  8
一般
  6
Continuous
 62
     7
370
    13
 92
     1592
310
38060000040000000C0000000E000000120000000C00000016000000000000C20C00000014000000010000000C0600000700000040000000E893EEF511F4BB406027DDF2C17AB0C00000000000000000BD926801DDCCBB40B0DD5CDDD478B0C00000000000000000C1C931B608A6BB4067BB845C1273B0C000000000000000
310
00C6DC49CFF47FBB409DD499A38869B0C0000000000000000045D05C2DFF5ABB40461F7B364F5CB0C00000000000000000656850EF8237BB40A3F0A7AF864BB0C00000000000000000C98F9D91D715BB40445EDE6F5837B0C00000000000000000F3A19F1650F6BA4003AF1738F61FB0C000000000000000007D5DED393AD9
310
BA40CC5DDEAE9905B0C00000000000000000440CB4B0DDBEBA40AB3258A407D1AFC00000000000000000045DED787BA7BA40FC565CAEF891AFC00000000000000000A4CA23394D93BA40C6A5F6F2A14EAFC00000000000000000019C50B28482BA4005D6DD76A907AFC00000000000000000ABE631454B75BA4005BD0333BE
310
BDAEC00000000000000000E1FF468CC16BBA400FE333659671AEC0000000000000000098DD6E0BFF65BA401451C6CEED23AEC00000000000000000E893EEF51164BA40C04EBAE583D5ADC0000000000000000098DD6E0BFF65BA406E4CAEFC1987ADC00000000000000000E1FF468CC16BBA4072BA40667139ADC000000000
310
00000000ABE631454B75BA407CE0709849EDACC00000000000000000019C50B28482BA407BC796545EA3ACC00000000000000000A4CA23394D93BA40BAF77DD8655CACC00000000000000000045DED787BA7BA408446181D0F19ACC00000000000000000440CB4B0DDBEBA40D76A1C2700DAABC000000000000000007D5DED
310
393AD9BA40E9E1B76DD49FABC00000000000000000F3A19F1650F6BA407B3F455B1B6BABC00000000000000000C98F9D91D715BB40F7E0B7EB563CABC00000000000000000656850EF8237BB403ABC246CFA13ABC0000000000000000045D05C2DFF5ABB40F55E7E5E69F2AAC00000000000000000C6DC49CFF47FBB4047F4
310
4084F6D7AAC00000000000000000C1C931B608A6BB40B3266B12E3C4AAC00000000000000000BD926801DDCCBB4020E2BA105EB9AAC00000000000000000E893EEF511F4BB40C04EBAE583B5AAC00000000000000000119574EA461BBC4020E2BA105EB9AAC000000000000000000F5EAB351B42BC40B3266B12E3C4AAC000
310
000000000000000A4B931C2F68BC4047F44084F6D7AAC000000000000000008A5780BE248DBC40F55E7E5E69F2AAC000000000000000006BBF8CFCA0B0BC403ABC246CFA13ABC0000000000000000005983F5A4CD2BC40F7E0B7EB563CABC00000000000000000DC853DD5D3F1BC407B3F455B1B6BABC00000000000000000
310
53CAEFB1E90EBD40E9E1B76DD49FABC000000000000000008B1B293B4629BD40D76A1C2700DAABC00000000000000000CCCAEF72A840BD408446181D0F19ACC000000000000000002A5DB9B2D654BD40BAF77DD8655CACC00000000000000000CE8B8C399F65BD407BC796545EA3ACC000000000000000002441ABA6D872BD
310
407CE0709849EDACC00000000000000000EE27965F627CBD4072BA40667139ADC00000000000000000384A6EE02482BD406E4CAEFC1987ADC00000000000000000E893EEF51184BD40C04EBAE583D5ADC00000000000000000384A6EE02482BD401451C6CEED23AEC00000000000000000EE27965F627CBD400FE333659671
310
AEC000000000000000002441ABA6D872BD4005BD0333BEBDAEC00000000000000000CE8B8C399F65BD4005D6DD76A907AFC000000000000000002A5DB9B2D654BD40C6A5F6F2A14EAFC00000000000000000CCCAEF72A840BD40FC565CAEF891AFC000000000000000008B1B293B4629BD40AB3258A407D1AFC00000000000
310
00000053CAEFB1E90EBD40CC5DDEAE9905B0C00000000000000000DC853DD5D3F1BC4003AF1738F61FB0C0000000000000000005983F5A4CD2BC40445EDE6F5837B0C000000000000000006BBF8CFCA0B0BC40A3F0A7AF864BB0C000000000000000008A5780BE248DBC40461F7B364F5CB0C000000000000000000A4B931C
310
2F68BC409DD499A38869B0C000000000000000000F5EAB351B42BC4067BB845C1273B0C00000000000000000119574EA461BBC40B0DD5CDDD478B0C00000000000000000
100
AcDbWipeout
 90
        0
 10
6756.070158873663
 20
-4218.757612058747
 30
0.0
 11
800.0
 21
0.0
 31
0.0
 12
0.0
 22
800.0
 32
0.0
 13
1.0
 23
1.0
340
0
 70
     4
280
     1
281
    50
282
    50
283
     0
360
0
 71
     2
 91
       65
 14
0.0
 24
0.5
 14
-0.0490085701647818
 24
0.4975923633360981
 14
-0.097545161008064
 24
0.4903926402016161
 14
-0.145142338627231
 24
0.4784701678661047
 14
-0.1913417161825457
 24
0.4619397662556439
 14
-0.235698368412999
 24
0.4409606321741775
 14
-0.2777851165098024
 24
0.4157348061512725
 14
-0.3171966420818233
 24
0.3865052266813693
 14
-0.3535533905932731
 24
0.3535533905932748
 14
-0.3865052266813702
 24
0.3171966420818233
 14
-0.4157348061512725
 24
0.2777851165098015
 14
-0.4409606321741784
 24
0.235698368412999
 14
-0.4619397662556448
 24
0.1913417161825448
 14
-0.4784701678661047
 24
0.1451423386272319
 14
-0.4903926402016161
 24
0.0975451610080649
 14
-0.4975923633360981
 24
0.0490085701647809
 14
-0.5
 24
0.0
 14
-0.4975923633360981
 24
-0.04900857016478
 14
-0.4903926402016161
 24
-0.097545161008064
 14
-0.4784701678661047
 24
-0.145142338627231
 14
-0.4619397662556448
 24
-0.1913417161825448
 14
-0.4409606321741784
 24
-0.235698368412999
 14
-0.4157348061512725
 24
-0.2777851165098015
 14
-0.3865052266813702
 24
-0.3171966420818224
 14
-0.3535533905932731
 24
-0.353553390593274
 14
-0.3171966420818233
 24
-0.3865052266813684
 14
-0.2777851165098024
 24
-0.4157348061512725
 14
-0.235698368412999
 24
-0.4409606321741775
 14
-0.1913417161825457
 24
-0.461939766255643
 14
-0.145142338627231
 24
-0.4784701678661039
 14
-0.097545161008064
 24
-0.4903926402016152
 14
-0.0490085701647818
 24
-0.4975923633360981
 14
0.0
 24
-0.5
 14
0.04900857016478
 24
-0.4975923633360981
 14
0.097545161008064
 24
-0.4903926402016152
 14
0.145142338627231
 24
-0.4784701678661039
 14
0.1913417161825439
 24
-0.461939766255643
 14
0.235698368412999
 24
-0.4409606321741775
 14
0.2777851165098006
 24
-0.4157348061512725
 14
0.3171966420818215
 24
-0.3865052266813684
 14
0.3535533905932731
 24
-0.353553390593274
 14
0.3865052266813684
 24
-0.3171966420818224
 14
0.4157348061512725
 24
-0.2777851165098015
 14
0.4409606321741766
 24
-0.235698368412999
 14
0.461939766255643
 24
-0.1913417161825448
 14
0.478470167866103
 24
-0.145142338627231
 14
0.4903926402016143
 24
-0.097545161008064
 14
0.4975923633360981
 24
-0.04900857016478
 14
0.5
 24
0.0
 14
0.4975923633360981
 24
0.0490085701647809
 14
0.4903926402016143
 24
0.0975451610080649
 14
0.478470167866103
 24
0.1451423386272319
 14
0.461939766255643
 24
0.1913417161825448
 14
0.4409606321741766
 24
0.235698368412999
 14
0.4157348061512725
 24
0.2777851165098015
 14
0.3865052266813684
 24
0.3171966420818233
 14
0.3535533905932731
 24
0.3535533905932748
 14
0.3171966420818215
 24
0.3865052266813693
 14
0.2777851165098006
 24
0.4157348061512725
 14
0.235698368412999
 24
0.4409606321741775
 14
0.1913417161825439
 24
0.4619397662556439
 14
0.145142338627231
 24
0.4784701678661047
 14
0.097545161008064
 24
0.4903926402016161
 14
0.04900857016478
 24
0.4975923633360981
 14
0.0
 24
0.5
  0
CIRCLE
  5
16C
330
54
100
AcDbEntity
  8
一般
  6
Continuous
 62
     7
370
    13
100
AcDbCircle
 10
7156.070158873663
 20
-3818.757612058747
 30
0.0
 40
400.0
  0
MTEXT
  5
16D
330
54
100
AcDbEntity
  8
一般
 62
     7
100
AcDbMText
 10
7156.070158873663
 20
-3818.757612058747
 30
0.0
 40
217.1788194444445
 41
415.925
 71
     5
 72
     1
  1
{\f平成明朝|b0|i0|c128|p0;X9}
 73
     1
 44
0.7828267384257843
  0
ENDBLK
  5
56
330
54
100
AcDbEntity
  8
0
100
AcDbBlockEnd
  0
BLOCK
  5
58
330
57
100
AcDbEntity
  8
0
100
AcDbBlockBegin
  2
グループ-9-1
 70
     0
 10
0.0
 20
0.0
 30
0.0
  3
グループ-9-1
  1

  0
LINE
  5
16E
330
57
100
AcDbEntity
  8
一般
  6
Continuous
 62
     7
370
     5
100
AcDbLine
 10
-8899.181566649562
 20
-1996.4
 30
0.0
 11
-9075.9582619462
 21
-1819.623304703362
 31
0.0
  0
LINE
  5
16F
330
57
100
AcDbEntity
  8
一般
  6
Continuous
 62
     7
370
     5
100
AcDbLine
 10
-8899.181566649562
 20
-1996.4
 30
0.0
 11
-8722.404871352925
 21
-1819.623304703362
 31
0.0
  0
LINE
  5
170
330
57
100
AcDbEntity
  8
一般
  6
Continuous
 62
     7
370
     5
100
AcDbLine
 10
-9075.9582619462
 20
-1819.623304703362
 30
0.0
 11
-8722.404871352925
 21
-1819.623304703362
 31
0.0
  0
ENDBLK
  5
59
330
57
100
AcDbEntity
  8
0
100
AcDbBlockEnd
  0
BLOCK
  5
5B
330
5A
100
AcDbEntity
  8
0
100
AcDbBlockBegin
  2
グループ-10-1
 70
     0
 10
0.0
 20
0.0
 30
0.0
  3
グループ-10-1
  1

  0
LINE
  5
171
330
5A
100
AcDbEntity
  8
一般
  6
Continuous
 62
     7
370
     5
100
AcDbLine
 10
-8899.181566649562
 20
-1466.4
 30
0.0
 11
-9075.9582619462
 21
-1289.623304703362
 31
0.0
  0
LINE
  5
172
330
5A
100
AcDbEntity
  8
一般
  6
Continuous
 62
     7
370
     5
100
AcDbLine
 10
-8899.181566649562
 20
-1466.4
 30
0.0
 11
-8722.404871352925
 21
-1289.623304703362
 31
0.0
  0
LINE
  5
173
330
5A
100
AcDbEntity
  8
一般
  6
Continuous
 62
     7
370
     5
100
AcDbLine
 10
-9075.9582619462
 20
-1289.623304703362
 30
0.0
 11
-8722.404871352925
 21
-1289.623304703362
 31
0.0
  0
ENDBLK
  5
5C
330
5A
100
AcDbEntity
  8
0
100
AcDbBlockEnd
  0
BLOCK
  5
5E
330
5D
100
AcDbEntity
  8
0
100
AcDbBlockBegin
  2
グループ-11-1
 70
     0
 10
0.0
 20
0.0
 30
0.0
  3
グループ-11-1
  1

  0
LINE
  5
174
330
5D
100
AcDbEntity
  8
一般
  6
Continuous
 62
     7
370
     5
100
AcDbLine
 10
-8899.181566649562
 20
1433.6
 30
0.0
 11
-9075.9582619462
 21
1610.376695296638
 31
0.0
  0
LINE
  5
175
330
5D
100
AcDbEntity
  8
一般
  6
Continuous
 62
     7
370
     5
100
AcDbLine
 10
-8899.181566649562
 20
1433.6
 30
0.0
 11
-8722.404871352925
 21
1610.376695296638
 31
0.0
  0
LINE
  5
176
330
5D
100
AcDbEntity
  8
一般
  6
Continuous
 62
     7
370
     5
100
AcDbLine
 10
-9075.9582619462
 20
1610.376695296638
 30
0.0
 11
-8722.404871352925
 21
1610.376695296638
 31
0.0
  0
ENDBLK
  5
5F
330
5D
100
AcDbEntity
  8
0
100
AcDbBlockEnd
  0
BLOCK
  5
61
330
60
100
AcDbEntity
  8
0
100
AcDbBlockBegin
  2
グループ-12-1
 70
     0
 10
0.0
 20
0.0
 30
0.0
  3
グループ-12-1
  1

  0
LINE
  5
177
330
60
100
AcDbEntity
  8
一般
  6
Continuous
 62
     7
370
     5
100
AcDbLine
 10
-8899.181566649562
 20
4133.6
 30
0.0
 11
-9075.9582619462
 21
4310.376695296638
 31
0.0
  0
LINE
  5
178
330
60
100
AcDbEntity
  8
一般
  6
Continuous
 62
     7
370
     5
100
AcDbLine
 10
-8899.181566649562
 20
4133.6
 30
0.0
 11
-8722.404871352925
 21
4310.376695296638
 31
0.0
  0
LINE
  5
179
330
60
100
AcDbEntity
  8
一般
  6
Continuous
 62
     7
370
     5
100
AcDbLine
 10
-9075.9582619462
 20
4310.376695296638
 30
0.0
 11
-8722.404871352925
 21
4310.376695296638
 31
0.0
  0
ENDBLK
  5
62
330
60
100
AcDbEntity
  8
0
100
AcDbBlockEnd
  0
BLOCK
  5
64
330
63
100
AcDbEntity
  8
0
100
AcDbBlockBegin
  2
グループ-13-1
 70
     0
 10
0.0
 20
0.0
 30
0.0
  3
グループ-13-1
  1

  0
LINE
  5
17A
330
63
100
AcDbEntity
  8
一般
  6
Continuous
 62
     7
370
     5
100
AcDbLine
 10
-8904.606980568618
 20
5727.5
 30
0.0
 11
-9081.383675865256
 21
5904.276695296638
 31
0.0
  0
LINE
  5
17B
330
63
100
AcDbEntity
  8
一般
  6
Continuous
 62
     7
370
     5
100
AcDbLine
 10
-8904.606980568618
 20
5727.5
 30
0.0
 11
-8727.83028527198
 21
5904.276695296638
 31
0.0
  0
LINE
  5
17C
330
63
100
AcDbEntity
  8
一般
  6
Continuous
 62
     7
370
     5
100
AcDbLine
 10
-9081.383675865256
 20
5904.276695296638
 30
0.0
 11
-8727.83028527198
 21
5904.276695296638
 31
0.0
  0
ENDBLK
  5
65
330
63
100
AcDbEntity
  8
0
100
AcDbBlockEnd
  0
BLOCK
  5
67
330
66
100
AcDbEntity
  8
0
100
AcDbBlockBegin
  2
グループ-14-1
 70
     0
 10
0.0
 20
0.0
 30
0.0
  3
グループ-14-1
  1

  0
LINE
  5
17D
330
66
100
AcDbEntity
  8
一般
  6
Continuous
 62
     7
370
     5
100
AcDbLine
 10
10222.54662793623
 20
1332.370415621928
 30
0.0
 11
10045.76993263959
 21
1509.147110918565
 31
0.0
  0
LINE
  5
17E
330
66
100
AcDbEntity
  8
一般
  6
Continuous
 62
     7
370
     5
100
AcDbLine
 10
10222.54662793623
 20
1332.370415621928
 30
0.0
 11
10399.32332323287
 21
1509.147110918565
 31
0.0
  0
LINE
  5
17F
330
66
100
AcDbEntity
  8
一般
  6
Continuous
 62
     7
370
     5
100
AcDbLine
 10
10045.76993263959
 20
1509.147110918565
 30
0.0
 11
10399.32332323287
 21
1509.147110918565
 31
0.0
  0
ENDBLK
  5
68
330
66
100
AcDbEntity
  8
0
100
AcDbBlockEnd
  0
BLOCK
  5
6A
330
69
100
AcDbEntity
  8
0
100
AcDbBlockBegin
  2
グループ-15-1
 70
     0
 10
0.0
 20
0.0
 30
0.0
  3
グループ-15-1
  1

  0
LINE
  5
180
330
69
100
AcDbEntity
  8
一般
  6
Continuous
 62
     7
370
    13
100
AcDbLine
 10
1764.956453480909
 20
-1470.01713386413
 30
0.0
 11
1764.956453480909
 21
529.9828661358704
 31
0.0
  0
LINE
  5
181
330
69
100
AcDbEntity
  8
一般
  6
Continuous
 62
     7
370
    13
100
AcDbLine
 10
3434.956453480909
 20
-1470.01713386413
 30
0.0
 11
3434.956453480909
 21
529.9828661358704
 31
0.0
  0
POLYLINE
  5
182
330
69
100
AcDbEntity
  8
一般
  6
Continuous
 62
     7
370
    13
100
AcDb2dPolyline
 66
     1
 10
0.0
 20
0.0
 30
0.0
 70
   129
  0
VERTEX
  5
183
330
182
100
AcDbEntity
  8
一般
  6
Continuous
 62
     7
370
    13
100
AcDbVertex
100
AcDb2dVertex
 10
1744.956453480909
 20
549.9828661358704
 30
0.0
  0
VERTEX
  5
184
330
182
100
AcDbEntity
  8
一般
  6
Continuous
 62
     7
370
    13
100
AcDbVertex
100
AcDb2dVertex
 10
3454.956453480909
 20
549.9828661358704
 30
0.0
  0
VERTEX
  5
185
330
182
100
AcDbEntity
  8
一般
  6
Continuous
 62
     7
370
    13
100
AcDbVertex
100
AcDb2dVertex
 10
3454.956453480909
 20
-1490.01713386413
 30
0.0
  0
VERTEX
  5
186
330
182
100
AcDbEntity
  8
一般
  6
Continuous
 62
     7
370
    13
100
AcDbVertex
100
AcDb2dVertex
 10
1744.956453480909
 20
-1490.01713386413
 30
0.0
  0
SEQEND
  5
187
330
182
100
AcDbEntity
  8
一般
  6
Continuous
 62
     7
370
    13
  0
POLYLINE
  5
188
330
69
100
AcDbEntity
  8
一般
  6
Continuous
 62
     7
370
    13
100
AcDb2dPolyline
 66
     1
 10
0.0
 20
0.0
 30
0.0
 70
   129
  0
VERTEX
  5
189
330
188
100
AcDbEntity
  8
一般
  6
Continuous
 62
     7
370
    13
100
AcDbVertex
100
AcDb2dVertex
 10
1764.956453480909
 20
529.9828661358704
 30
0.0
  0
VERTEX
  5
18A
330
188
100
AcDbEntity
  8
一般
  6
Continuous
 62
     7
370
    13
100
AcDbVertex
100
AcDb2dVertex
 10
2584.956453480909
 20
529.9828661358704
 30
0.0
  0
VERTEX
  5
18B
330
188
100
AcDbEntity
  8
一般
  6
Continuous
 62
     7
370
    13
100
AcDbVertex
100
AcDb2dVertex
 10
2584.956453480909
 20
-1470.01713386413
 30
0.0
  0
VERTEX
  5
18C
330
188
100
AcDbEntity
  8
一般
  6
Continuous
 62
     7
370
    13
100
AcDbVertex
100
AcDb2dVertex
 10
1764.956453480909
 20
-1470.01713386413
 30
0.0
  0
SEQEND
  5
18D
330
188
100
AcDbEntity
  8
一般
  6
Continuous
 62
     7
370
    13
  0
POLYLINE
  5
18E
330
69
100
AcDbEntity
  8
一般
  6
Continuous
 62
     7
370
    13
100
AcDb2dPolyline
 66
     1
 10
0.0
 20
0.0
 30
0.0
 70
   129
  0
VERTEX
  5
18F
330
18E
100
AcDbEntity
  8
一般
  6
Continuous
 62
     7
370
    13
100
AcDbVertex
100
AcDb2dVertex
 10
2584.956453480909
 20
529.9828661358704
 30
0.0
  0
VERTEX
  5
190
330
18E
100
AcDbEntity
  8
一般
  6
Continuous
 62
     7
370
    13
100
AcDbVertex
100
AcDb2dVertex
 10
3434.956453480909
 20
529.9828661358704
 30
0.0
  0
VERTEX
  5
191
330
18E
100
AcDbEntity
  8
一般
  6
Continuous
 62
     7
370
    13
100
AcDbVertex
100
AcDb2dVertex
 10
3434.956453480909
 20
-1470.01713386413
 30
0.0
  0
VERTEX
  5
192
330
18E
100
AcDbEntity
  8
一般
  6
Continuous
 62
     7
370
    13
100
AcDbVertex
100
AcDb2dVertex
 10
2584.956453480909
 20
-1470.01713386413
 30
0.0
  0
SEQEND
  5
193
330
18E
100
AcDbEntity
  8
一般
  6
Continuous
 62
     7
370
    13
  0
POLYLINE
  5
194
330
69
100
AcDbEntity
  8
一般
  6
Continuous
 62
     7
370
    13
100
AcDb2dPolyline
 66
     1
 10
0.0
 20
0.0
 30
0.0
 70
   129
  0
VERTEX
  5
195
330
194
100
AcDbEntity
  8
一般
  6
Continuous
 62
     7
370
    13
100
AcDbVertex
100
AcDb2dVertex
 10
2614.956453480909
 20
499.9828661358704
 30
0.0
  0
VERTEX
  5
196
330
194
100
AcDbEntity
  8
一般
  6
Continuous
 62
     7
370
    13
100
AcDbVertex
100
AcDb2dVertex
 10
3404.956453480909
 20
499.9828661358704
 30
0.0
  0
VERTEX
  5
197
330
194
100
AcDbEntity
  8
一般
  6
Continuous
 62
     7
370
    13
100
AcDbVertex
100
AcDb2dVertex
 10
3404.956453480909
 20
-1370.01713386413
 30
0.0
  0
VERTEX
  5
198
330
194
100
AcDbEntity
  8
一般
  6
Continuous
 62
     7
370
    13
100
AcDbVertex
100
AcDb2dVertex
 10
2614.956453480909
 20
-1370.01713386413
 30
0.0
  0
SEQEND
  5
199
330
194
100
AcDbEntity
  8
一般
  6
Continuous
 62
     7
370
    13
  0
POLYLINE
  5
19A
330
69
100
AcDbEntity
  8
一般
  6
Continuous
 62
     7
370
    13
100
AcDb2dPolyline
 66
     1
 10
0.0
 20
0.0
 30
0.0
 70
   129
  0
VERTEX
  5
19B
330
19A
100
AcDbEntity
  8
一般
  6
Continuous
 62
     7
370
    13
100
AcDbVertex
100
AcDb2dVertex
 10
1794.956453480909
 20
499.9828661358704
 30
0.0
  0
VERTEX
  5
19C
330
19A
100
AcDbEntity
  8
一般
  6
Continuous
 62
     7
370
    13
100
AcDbVertex
100
AcDb2dVertex
 10
2584.956453480909
 20
499.9828661358704
 30
0.0
  0
VERTEX
  5
19D
330
19A
100
AcDbEntity
  8
一般
  6
Continuous
 62
     7
370
    13
100
AcDbVertex
100
AcDb2dVertex
 10
2584.956453480909
 20
-1370.01713386413
 30
0.0
  0
VERTEX
  5
19E
330
19A
100
AcDbEntity
  8
一般
  6
Continuous
 62
     7
370
    13
100
AcDbVertex
100
AcDb2dVertex
 10
1794.956453480909
 20
-1370.01713386413
 30
0.0
  0
SEQEND
  5
19F
330
19A
100
AcDbEntity
  8
一般
  6
Continuous
 62
     7
370
    13
  0
WIPEOUT
  5
1A0
330
69
100
AcDbEntity
  8
一般
  6
Continuous
 62
     7
370
    13
 92
      152
310
98000000040000000C0000000E000000120000000C00000016000000000000C20C00000014000000010000006C000000070000000400000097928A68D3539A405E288A8B114897C000000000000000004C4945B4E975AB405E288A8B114897C000000000000000004C4945B4E975AB405E288A8B113898C000000000000000
310
0097928A68D3539A405E288A8B113898C00000000000000000
100
AcDbWipeout
 90
        0
 10
1684.956453480909
 20
-1550.01713386413
 30
0.0
 11
1830.0
 21
0.0
 31
0.0
 12
0.0
 22
1830.0
 32
0.0
 13
1.0
 23
1.0
340
0
 70
     4
280
     1
281
    50
282
    50
283
     0
360
0
 71
     2
 91
        5
 14
-0.5000000000000001
 24
0.4672131147540983
 14
0.5
 24
0.4672131147540983
 14
0.5
 24
0.5
 14
-0.5000000000000001
 24
0.5
 14
-0.5000000000000001
 24
0.4672131147540983
  0
POLYLINE
  5
1A1
330
69
100
AcDbEntity
  8
一般
  6
Continuous
 62
     7
370
    13
100
AcDb2dPolyline
 66
     1
 10
0.0
 20
0.0
 30
0.0
 70
   129
  0
VERTEX
  5
1A2
330
1A1
100
AcDbEntity
  8
一般
  6
Continuous
 62
     7
370
    13
100
AcDbVertex
100
AcDb2dVertex
 10
1684.956453480909
 20
-1490.01713386413
 30
0.0
  0
VERTEX
  5
1A3
330
1A1
100
AcDbEntity
  8
一般
  6
Continuous
 62
     7
370
    13
100
AcDbVertex
100
AcDb2dVertex
 10
3514.956453480909
 20
-1490.01713386413
 30
0.0
  0
VERTEX
  5
1A4
330
1A1
100
AcDbEntity
  8
一般
  6
Continuous
 62
     7
370
    13
100
AcDbVertex
100
AcDb2dVertex
 10
3514.956453480909
 20
-1550.01713386413
 30
0.0
  0
VERTEX
  5
1A5
330
1A1
100
AcDbEntity
  8
一般
  6
Continuous
 62
     7
370
    13
100
AcDbVertex
100
AcDb2dVertex
 10
1684.956453480909
 20
-1550.01713386413
 30
0.0
  0
SEQEND
  5
1A6
330
1A1
100
AcDbEntity
  8
一般
  6
Continuous
 62
     7
370
    13
  0
ENDBLK
  5
6B
330
69
100
AcDbEntity
  8
0
100
AcDbBlockEnd
  0
BLOCK
  5
6D
330
6C
100
AcDbEntity
  8
0
100
AcDbBlockBegin
  2
グループ-16-1
 70
     0
 10
0.0
 20
0.0
 30
0.0
  3
グループ-16-1
  1

  0
WIPEOUT
  5
1A7
330
6C
100
AcDbEntity
  8
一般
  6
Continuous
 62
     7
370
    13
 92
     1592
310
38060000040000000C0000000E000000120000000C00000016000000000000C20C00000014000000010000000C0600000700000040000000E893EEF51182BF406027DDF2C17AB0C00000000000000000BF926801DD5ABF40B0DD5CDDD478B0C00000000000000000C1C931B60834BF4067BB845C1273B0C000000000000000
310
00C6DC49CFF40DBF409DD499A38869B0C0000000000000000045D05C2DFFE8BE40461F7B364F5CB0C00000000000000000656850EF82C5BE40A3F0A7AF864BB0C00000000000000000CB8F9D91D7A3BE40445EDE6F5837B0C00000000000000000F3A19F165084BE4003AF1738F61FB0C000000000000000007D5DED393A67
310
BE40CC5DDEAE9905B0C00000000000000000450CB4B0DD4CBE40AB3258A407D1AFC00000000000000000045DED787B35BE40FC565CAEF891AFC00000000000000000A6CA23394D21BE40C6A5F6F2A14EAFC00000000000000000029C50B28410BE4005D6DD76A907AFC00000000000000000ABE631454B03BE4005BD0333BE
310
BDAEC00000000000000000E1FF468CC1F9BD400FE333659671AEC0000000000000000098DD6E0BFFF3BD401451C6CEED23AEC00000000000000000E893EEF511F2BD40C04EBAE583D5ADC0000000000000000098DD6E0BFFF3BD406E4CAEFC1987ADC00000000000000000E1FF468CC1F9BD4072BA40667139ADC000000000
310
00000000ABE631454B03BE407CE0709849EDACC00000000000000000029C50B28410BE407BC796545EA3ACC00000000000000000A6CA23394D21BE40BAF77DD8655CACC00000000000000000045DED787B35BE408446181D0F19ACC00000000000000000450CB4B0DD4CBE40D76A1C2700DAABC000000000000000007D5DED
310
393A67BE40E9E1B76DD49FABC00000000000000000F3A19F165084BE407B3F455B1B6BABC00000000000000000CB8F9D91D7A3BE40F7E0B7EB563CABC00000000000000000656850EF82C5BE403ABC246CFA13ABC0000000000000000045D05C2DFFE8BE40F55E7E5E69F2AAC00000000000000000C6DC49CFF40DBF4047F4
310
4084F6D7AAC00000000000000000C1C931B60834BF40B3266B12E3C4AAC00000000000000000BF926801DD5ABF4020E2BA105EB9AAC00000000000000000E893EEF51182BF40C04EBAE583B5AAC00000000000000000139574EA46A9BF4020E2BA105EB9AAC000000000000000000F5EAB351BD0BF40B3266B12E3C4AAC000
310
000000000000000A4B931C2FF6BF4047F44084F6D7AAC00000000000000000C52B405F920DC040F55E7E5E69F2AAC00000000000000000B55F467E501FC0403ABC246CFA13ABC0000000000000000003CC1F2D2630C040F7E0B7EB563CABC00000000000000000EEC29EEAE93FC0407B3F455B1B6BABC00000000000000000
310
2AE5F7D8744EC040E9E1B76DD49FABC00000000000000000C58D941DA35BC040D76A1C2700DAABC0000000000000000066E577395467C0408446181D0F19ACC0000000000000000096AE5C596B71C040BAF77DD8655CACC00000000000000000E745C69CCF79C0407BC796545EA3ACC0000000000000000093A055536C80C0
310
407CE0709849EDACC00000000000000000F713CB2F3185C04072BA40667139ADC000000000000000001C2537701288C0406E4CAEFC1987ADC00000000000000000F449F7FA0889C040C04EBAE583D5ADC000000000000000001C2537701288C0401451C6CEED23AEC00000000000000000F713CB2F3185C0400FE333659671
310
AEC0000000000000000093A055536C80C04005BD0333BEBDAEC00000000000000000E745C69CCF79C04005D6DD76A907AFC0000000000000000096AE5C596B71C040C6A5F6F2A14EAFC0000000000000000066E577395467C040FC565CAEF891AFC00000000000000000C58D941DA35BC040AB3258A407D1AFC00000000000
310
0000002AE5F7D8744EC040CC5DDEAE9905B0C00000000000000000EEC29EEAE93FC04003AF1738F61FB0C0000000000000000003CC1F2D2630C040445EDE6F5837B0C00000000000000000B55F467E501FC040A3F0A7AF864BB0C00000000000000000C52B405F920DC040461F7B364F5CB0C000000000000000000A4B931C
310
2FF6BF409DD499A38869B0C000000000000000000F5EAB351BD0BF4067BB845C1273B0C00000000000000000139574EA46A9BF40B0DD5CDDD478B0C00000000000000000
100
AcDbWipeout
 90
        0
 10
7666.070158873663
 20
-4218.757612058747
 30
0.0
 11
800.0
 21
0.0
 31
0.0
 12
0.0
 22
800.0
 32
0.0
 13
1.0
 23
1.0
340
0
 70
     4
280
     1
281
    50
282
    50
283
     0
360
0
 71
     2
 91
       65
 14
0.0
 24
0.5
 14
-0.04900857016478
 24
0.4975923633360981
 14
-0.097545161008064
 24
0.4903926402016161
 14
-0.145142338627231
 24
0.4784701678661047
 14
-0.1913417161825457
 24
0.4619397662556439
 14
-0.235698368412999
 24
0.4409606321741775
 14
-0.2777851165098006
 24
0.4157348061512725
 14
-0.3171966420818233
 24
0.3865052266813693
 14
-0.3535533905932731
 24
0.3535533905932748
 14
-0.3865052266813684
 24
0.3171966420818233
 14
-0.4157348061512725
 24
0.2777851165098015
 14
-0.4409606321741766
 24
0.235698368412999
 14
-0.461939766255643
 24
0.1913417161825448
 14
-0.4784701678661047
 24
0.1451423386272319
 14
-0.4903926402016161
 24
0.0975451610080649
 14
-0.4975923633360981
 24
0.0490085701647809
 14
-0.5
 24
0.0
 14
-0.4975923633360981
 24
-0.04900857016478
 14
-0.4903926402016161
 24
-0.097545161008064
 14
-0.4784701678661047
 24
-0.145142338627231
 14
-0.461939766255643
 24
-0.1913417161825448
 14
-0.4409606321741766
 24
-0.235698368412999
 14
-0.4157348061512725
 24
-0.2777851165098015
 14
-0.3865052266813684
 24
-0.3171966420818224
 14
-0.3535533905932731
 24
-0.353553390593274
 14
-0.3171966420818233
 24
-0.3865052266813684
 14
-0.2777851165098006
 24
-0.4157348061512725
 14
-0.235698368412999
 24
-0.4409606321741775
 14
-0.1913417161825457
 24
-0.461939766255643
 14
-0.145142338627231
 24
-0.4784701678661039
 14
-0.097545161008064
 24
-0.4903926402016152
 14
-0.04900857016478
 24
-0.4975923633360981
 14
0.0
 24
-0.5
 14
0.0490085701647818
 24
-0.4975923633360981
 14
0.097545161008064
 24
-0.4903926402016152
 14
0.145142338627231
 24
-0.4784701678661039
 14
0.1913417161825439
 24
-0.461939766255643
 14
0.2356983684129972
 24
-0.4409606321741775
 14
0.2777851165098024
 24
-0.4157348061512725
 14
0.3171966420818215
 24
-0.3865052266813684
 14
0.3535533905932748
 24
-0.353553390593274
 14
0.3865052266813684
 24
-0.3171966420818224
 14
0.4157348061512725
 24
-0.2777851165098015
 14
0.4409606321741784
 24
-0.235698368412999
 14
0.461939766255643
 24
-0.1913417161825448
 14
0.4784701678661047
 24
-0.145142338627231
 14
0.4903926402016143
 24
-0.097545161008064
 14
0.4975923633360981
 24
-0.04900857016478
 14
0.5
 24
0.0
 14
0.4975923633360981
 24
0.0490085701647809
 14
0.4903926402016143
 24
0.0975451610080649
 14
0.4784701678661047
 24
0.1451423386272319
 14
0.461939766255643
 24
0.1913417161825448
 14
0.4409606321741784
 24
0.235698368412999
 14
0.4157348061512725
 24
0.2777851165098015
 14
0.3865052266813684
 24
0.3171966420818233
 14
0.3535533905932748
 24
0.3535533905932748
 14
0.3171966420818215
 24
0.3865052266813693
 14
0.2777851165098024
 24
0.4157348061512725
 14
0.2356983684129972
 24
0.4409606321741775
 14
0.1913417161825439
 24
0.4619397662556439
 14
0.145142338627231
 24
0.4784701678661047
 14
0.097545161008064
 24
0.4903926402016161
 14
0.0490085701647818
 24
0.4975923633360981
 14
0.0
 24
0.5
  0
CIRCLE
  5
1A8
330
6C
100
AcDbEntity
  8
一般
  6
Continuous
 62
     7
370
    13
100
AcDbCircle
 10
8066.070158873663
 20
-3818.757612058747
 30
0.0
 40
400.0
  0
MTEXT
  5
1A9
330
6C
100
AcDbEntity
  8
一般
 62
     7
100
AcDbMText
 10
8050.0
 20
-3818.757612058747
 30
0.0
 40
217.1788194444445
 41
580.0000000000002
 71
     5
 72
     1
  1
{\f平成明朝|b0|i0|c128|p0;X10}
 73
     1
 44
0.7828267384257843
  0
ENDBLK
  5
6E
330
6C
100
AcDbEntity
  8
0
100
AcDbBlockEnd
  0
ENDSEC
  0
SECTION
  2
ENTITIES
  0
LINE
  5
1AA
330
1F
100
AcDbEntity
  8
一般
  6
Continuous
 62
     7
370
    25
100
AcDbLine
 10
8659.93811007754
 20
1165.399929404735
 30
0.0
 11
8581.946068043375
 21
970.4198243187491
 31
0.0
  0
LINE
  5
1AB
330
1F
100
AcDbEntity
  8
一般
  6
Continuous
 62
     7
370
    25
100
AcDbLine
 10
7808.617836941479
 20
4003.866160289632
 30
0.0
 11
7787.077177712943
 21
3950.014512218284
 31
0.0
  0
LINE
  5
1AC
330
1F
100
AcDbEntity
  8
一般
  6
Continuous
 62
     7
370
    25
100
AcDbLine
 10
7743.995859255881
 20
3950.014512218284
 30
0.0
 11
7671.946068043368
 21
3769.890034186465
 31
0.0
  0
LINE
  5
1AD
330
1F
100
AcDbEntity
  8
一般
  6
Continuous
 62
     7
370
    25
100
AcDbLine
 10
3509.956453480916
 20
5723.330713673862
 30
0.0
 11
-7156.022822287059
 21
5723.330713673862
 31
0.0
  0
LINE
  5
1AE
330
1F
100
AcDbEntity
  8
一般
  6
Continuous
 62
     7
370
    13
100
AcDbLine
 10
3497.988388935401
 20
5661.234192587457
 30
0.0
 11
-7156.022822287059
 21
5661.234192587457
 31
0.0
  0
WIPEOUT
  5
1AF
330
1F
100
AcDbEntity
  8
一般
  6
Continuous
 62
     7
370
     5
 92
      152
310
98000000040000000C0000000E000000120000000C00000016000000000000C20C00000014000000010000006C000000070000000400000099999999416FC3C0FF79607F4F189FC000000000000000009999999981D0C2C0FF79607F4F189FC000000000000000009999999981D0C2C0FF79607F4F229AC000000000000000
310
0099999999416FC3C0FF79607F4F229AC00000000000000000
100
AcDbWipeout
 90
        0
 10
-9950.512499999999
 20
-1990.077634341665
 30
0.0
 11
317.5
 21
0.0
 31
0.0
 12
0.0
 22
317.5
 32
0.0
 13
1.0
 23
1.0
340
0
 70
     4
280
     1
281
    50
282
    50
283
     0
360
0
 71
     2
 91
        5
 14
-0.5
 24
0.5000000000000009
 14
0.5
 24
0.5000000000000009
 14
0.5
 24
-0.4999999999999991
 14
-0.5
 24
-0.4999999999999991
 14
-0.5
 24
0.5000000000000009
  0
MTEXT
  5
1B0
330
1F
100
AcDbEntity
  8
一般
 62
     7
100
AcDbMText
 10
-9950.512499999999
 20
-1701.301462466665
 30
0.0
 40
244.326171875
 41
0.0
 71
     1
 72
     1
  1
{\f平成明朝|b0|i0|c128|p0;GL}
 73
     1
 44
0.7828267384257843
  0
WIPEOUT
  5
1B1
330
1F
100
AcDbEntity
  8
一般
  6
Continuous
 62
     7
370
     5
 92
      152
310
98000000040000000C0000000E000000120000000C00000016000000000000C20C00000014000000010000006C000000070000000400000099999999416FC3C0BBC02633426F96C00000000000000000B5607F982181C2C0BBC02633426F96C00000000000000000B5607F982181C2C0BBC02633427991C000000000000000
310
0099999999416FC3C0BBC02633427991C00000000000000000
100
AcDbWipeout
 90
        0
 10
-9950.512499999999
 20
-1435.814648252023
 30
0.0
 11
476.2500336435114
 21
0.0
 31
0.0
 12
0.0
 22
476.2500336435114
 32
0.0
 13
1.0
 23
1.0
340
0
 70
     4
280
     1
281
    50
282
    50
283
     0
360
0
 71
     2
 91
        5
 14
-0.5
 24
0.5000000000000004
 14
0.5
 24
0.5000000000000004
 14
0.5
 24
-0.1666666195716404
 14
-0.5
 24
-0.1666666195716404
 14
-0.5
 24
0.5000000000000004
  0
MTEXT
  5
1B2
330
1F
100
AcDbEntity
  8
一般
 62
     7
100
AcDbMText
 10
-9950.512499999999
 20
-1147.038476377023
 30
0.0
 40
244.326171875
 41
0.0
 71
     1
 72
     1
  1
{\f平成明朝|b0|i0|c128|p0;1FL}
 73
     1
 44
0.7828267384257843
  0
WIPEOUT
  5
1B3
330
1F
100
AcDbEntity
  8
一般
  6
Continuous
 62
     7
370
     5
 92
      152
310
98000000040000000C0000000E000000120000000C00000016000000000000C20C00000014000000010000006C000000070000000400000099999999416FC3C052BA1609F70A97400000000000000000B5607F982181C2C052BA1609F70A97400000000000000000B5607F982181C2C052BA1609F7009C4000000000000000
310
0099999999416FC3C052BA1609F7009C400000000000000000
100
AcDbWipeout
 90
        0
 10
-9950.512499999999
 20
1474.741245608446
 30
0.0
 11
476.2500336435114
 21
0.0
 31
0.0
 12
0.0
 22
476.2500336435114
 32
0.0
 13
1.0
 23
1.0
340
0
 70
     4
280
     1
281
    50
282
    50
283
     0
360
0
 71
     2
 91
        5
 14
-0.5
 24
0.5
 14
0.5
 24
0.5
 14
0.5
 24
-0.1666666195716409
 14
-0.5
 24
-0.1666666195716409
 14
-0.5
 24
0.5
  0
MTEXT
  5
1B4
330
1F
100
AcDbEntity
  8
一般
 62
     7
100
AcDbMText
 10
-9950.512499999999
 20
1763.517417483446
 30
0.0
 40
244.326171875
 41
0.0
 71
     1
 72
     1
  1
{\f平成明朝|b0|i0|c128|p0;2FL}
 73
     1
 44
0.7828267384257843
  0
WIPEOUT
  5
1B5
330
1F
100
AcDbEntity
  8
一般
  6
Continuous
 62
     7
370
     5
 92
      152
310
98000000040000000C0000000E000000120000000C00000016000000000000C20C00000014000000010000006C00000007000000040000009A999999416FC3C075B761A09A4FB0400000000000000000D2276597C131C2C075B761A09A4FB0400000000000000000D2276597C131C2C075B761A01A8DB14000000000000000
310
009A999999416FC3C075B761A01A8DB1400000000000000000
100
AcDbWipeout
 90
        0
 10
-9950.512499999999
 20
4175.604009730614
 30
0.0
 11
635.000067287021
 21
0.0
 31
0.0
 12
0.0
 22
635.000067287021
 32
0.0
 13
1.0
 23
1.0
340
0
 70
     4
280
     1
281
    50
282
    50
283
     0
360
0
 71
     2
 91
        5
 14
-0.5
 24
0.4999999999999991
 14
0.5
 24
0.4999999999999991
 14
0.5
 24
0.0000000529818998
 14
-0.5
 24
0.0000000529818998
 14
-0.5
 24
0.4999999999999991
  0
MTEXT
  5
1B6
330
1F
100
AcDbEntity
  8
一般
 62
     7
100
AcDbMText
 10
-9950.512499999999
 20
4464.380181605614
 30
0.0
 40
244.326171875
 41
0.0
 71
     1
 72
     1
  1
{\f平成明朝|b0|i0|c128|p0;軒高}
 73
     1
 44
0.7828267384257843
  0
LINE
  5
1B7
330
1F
100
AcDbEntity
  8
一般
  6
Continuous
 62
     7
370
    13
100
AcDbLine
 10
7801.932804767106
 20
3987.153579853697
 30
0.0
 11
-7156.067195232894
 21
3987.153579853697
 31
0.0
  0
LINE
  5
1B8
330
1F
100
AcDbEntity
  8
一般
  6
Continuous
 62
     7
370
    25
100
AcDbLine
 10
7787.077177712943
 20
3950.014512218284
 30
0.0
 11
-7156.022822287059
 21
3950.014512218288
 31
0.0
  0
LINE
  5
1B9
330
1F
100
AcDbEntity
  8
一般
  6
Continuous
 62
     7
370
    25
100
AcDbLine
 10
7671.946068043368
 20
3769.890034186465
 30
0.0
 11
-7100.043546519091
 21
3769.890034186465
 31
0.0
  0
LINE
  5
1BA
330
1F
100
AcDbEntity
  8
一般
  6
Continuous
 62
     7
370
    25
100
AcDbLine
 10
7808.617836941479
 20
4003.866160289632
 30
0.0
 11
3509.956453480916
 21
5723.330713673862
 31
0.0
  0
LINE
  5
1BB
330
1F
100
AcDbEntity
  8
一般
  6
Continuous
 62
     7
370
    25
100
AcDbLine
 10
-7156.022822287059
 20
3950.014512218288
 30
0.0
 11
-7156.022822287059
 21
5723.330713673862
 31
0.0
  0
LINE
  5
1BC
330
1F
100
AcDbEntity
  8
一般
  6
Continuous
 62
     7
370
    25
100
AcDbLine
 10
7224.956453480909
 20
1801.860503806146
 30
0.0
 11
7224.956453480909
 21
3769.890034186465
 31
0.0
  0
LINE
  5
1BD
330
1F
100
AcDbEntity
  8
一般
  6
Continuous
 62
     7
370
    25
100
AcDbLine
 10
-6575.043546519091
 20
-2000.01713386413
 30
0.0
 11
-6575.043546519091
 21
3769.890034186465
 31
0.0
  0
INSERT
  5
1BE
330
1F
100
AcDbEntity
  8
一般
 62
     7
100
AcDbBlockReference
  2
グループ-1
 10
0.0
 20
0.0
 30
0.0
  0
INSERT
  5
1BF
330
1F
100
AcDbEntity
  8
一般
 62
     7
100
AcDbBlockReference
  2
グループ-2-1
 10
0.0
 20
0.0
 30
0.0
  0
INSERT
  5
1C0
330
1F
100
AcDbEntity
  8
一般
 62
     7
100
AcDbBlockReference
  2
グループ-3-1
 10
0.0
 20
0.0
 30
0.0
  0
INSERT
  5
1C1
330
1F
100
AcDbEntity
  8
一般
 62
     7
100
AcDbBlockReference
  2
グループ-4-1
 10
0.0
 20
0.0
 30
0.0
  0
INSERT
  5
1C2
330
1F
100
AcDbEntity
  8
一般
 62
     7
100
AcDbBlockReference
  2
グループ-5-1
 10
0.0
 20
0.0
 30
0.0
  0
INSERT
  5
1C3
330
1F
100
AcDbEntity
  8
一般
 62
     7
100
AcDbBlockReference
  2
グループ-6-1
 10
0.0
 20
0.0
 30
0.0
  0
LINE
  5
1C4
330
1F
100
AcDbEntity
  8
一般
  6
Continuous
 62
     7
370
     5
100
AcDbLine
 10
-7156.022822287059
 20
5461.234192587457
 30
0.0
 11
3997.988388935399
 21
5461.234192587457
 31
0.0
  0
LINE
  5
1C5
330
1F
100
AcDbEntity
  8
一般
  6
Continuous
 62
     7
370
     5
100
AcDbLine
 10
-7156.022822287059
 20
5261.234192587457
 30
0.0
 11
4497.988388935397
 21
5261.234192587457
 31
0.0
  0
LINE
  5
1C6
330
1F
100
AcDbEntity
  8
一般
  6
Continuous
 62
     7
370
     5
100
AcDbLine
 10
-7156.022822287059
 20
5061.234192587457
 30
0.0
 11
4997.988388935396
 21
5061.234192587457
 31
0.0
  0
LINE
  5
1C7
330
1F
100
AcDbEntity
  8
一般
  6
Continuous
 62
     7
370
     5
100
AcDbLine
 10
-7156.022822287059
 20
4861.234192587457
 30
0.0
 11
5497.988388935394
 21
4861.234192587457
 31
0.0
  0
LINE
  5
1C8
330
1F
100
AcDbEntity
  8
一般
  6
Continuous
 62
     7
370
     5
100
AcDbLine
 10
-7156.022822287059
 20
4661.234192587457
 30
0.0
 11
5997.988388935393
 21
4661.234192587457
 31
0.0
  0
LINE
  5
1C9
330
1F
100
AcDbEntity
  8
一般
  6
Continuous
 62
     7
370
     5
100
AcDbLine
 10
-7156.022822287059
 20
4461.234192587457
 30
0.0
 11
6497.988388935391
 21
4461.234192587457
 31
0.0
  0
LINE
  5
1CA
330
1F
100
AcDbEntity
  8
一般
  6
Continuous
 62
     7
370
     5
100
AcDbLine
 10
-7156.022822287059
 20
4261.234192587457
 30
0.0
 11
6997.988388935391
 21
4261.234192587457
 31
0.0
  0
LINE
  5
1CB
330
1F
100
AcDbEntity
  8
一般
  6
Continuous
 62
     7
370
     5
100
AcDbLine
 10
-7156.022822287059
 20
4061.234192587457
 30
0.0
 11
7497.98838893539
 21
4061.234192587457
 31
0.0
  0
LINE
  5
1CC
330
1F
100
AcDbEntity
  8
一般
  6
Continuous
 62
     7
370
    13
100
AcDbLine
 10
-6575.043546519091
 20
-1665.01713386413
 30
0.0
 11
8134.956453480909
 21
-1665.01713386413
 31
0.0
  0
LINE
  5
1CD
330
1F
100
AcDbEntity
  8
一般
  6
Continuous
 62
     7
370
    25
100
AcDbLine
 10
9345.331446849208
 20
-2000.01713386413
 30
0.0
 11
-10940.6
 21
-2000.01713386413
 31
0.0
  0
LINE
  5
1CE
330
1F
100
AcDbEntity
  8
一般
  6
Continuous
 62
     7
370
    13
100
AcDbLine
 10
-9941.001111583746
 20
4131.438341795802
 30
0.0
 11
-8790.6
 21
4131.305884993428
 31
0.0
  0
LINE
  5
1CF
330
1F
100
AcDbEntity
  8
一般
  6
Continuous
 62
     7
370
    13
100
AcDbLine
 10
-9941.001111583746
 20
1429.98286613587
 30
0.0
 11
-8790.6
 21
1429.98286613587
 31
0.0
  0
LINE
  5
1D0
330
1F
100
AcDbEntity
  8
一般
  6
Continuous
 62
     7
370
    13
100
AcDbLine
 10
-9941.001111583746
 20
-1470.01713386413
 30
0.0
 11
-8790.6
 21
-1470.01713386413
 31
0.0
  0
INSERT
  5
1D1
330
1F
100
AcDbEntity
  8
一般
 62
     7
100
AcDbBlockReference
  2
グループ-7-1
 10
0.0
 20
0.0
 30
0.0
  0
INSERT
  5
1D2
330
1F
100
AcDbEntity
  8
一般
 62
     7
100
AcDbBlockReference
  2
グループ-8-1
 10
0.0
 20
0.0
 30
0.0
  0
LINE
  5
1D3
330
1F
100
AcDbEntity
  8
一般
  6
Continuous
 62
     7
370
    13
100
AcDbLine
 10
-6500.043546519091
 20
-2876.669286326138
 30
0.0
 11
-6500.043546519091
 21
-3418.757612058746
 31
0.0
  0
LINE
  5
1D4
330
1F
100
AcDbEntity
  8
一般
  6
Continuous
 62
     7
370
    13
100
AcDbLine
 10
7149.956453480911
 20
-3418.804336529754
 30
0.0
 11
7149.956453480911
 21
-2876.669286326138
 31
0.0
  0
LINE
  5
1D5
330
1F
100
AcDbEntity
  8
一般
  6
Continuous
 62
     7
370
    25
100
AcDbLine
 10
-7100.043546519091
 20
3769.890034186465
 30
0.0
 11
-7100.043546519091
 21
3950.014512218284
 31
0.0
  0
LINE
  5
1D6
330
1F
100
AcDbEntity
  8
一般
  6
Continuous
 62
     7
370
    13
100
AcDbLine
 10
7683.189920769788
 20
3987.153579853697
 30
0.0
 11
3497.988388935401
 21
5661.234192587457
 31
0.0
  0
INSERT
  5
1D7
330
1F
100
AcDbEntity
  8
一般
 62
     7
100
AcDbBlockReference
  2
グループ-9-1
 10
0.0
 20
0.0
 30
0.0
  0
INSERT
  5
1D8
330
1F
100
AcDbEntity
  8
一般
 62
     7
100
AcDbBlockReference
  2
グループ-10-1
 10
0.0
 20
0.0
 30
0.0
  0
INSERT
  5
1D9
330
1F
100
AcDbEntity
  8
一般
 62
     7
100
AcDbBlockReference
  2
グループ-11-1
 10
0.0
 20
0.0
 30
0.0
  0
INSERT
  5
1DA
330
1F
100
AcDbEntity
  8
一般
 62
     7
100
AcDbBlockReference
  2
グループ-12-1
 10
0.0
 20
0.0
 30
0.0
  0
INSERT
  5
1DB
330
1F
100
AcDbEntity
  8
一般
 62
     7
100
AcDbBlockReference
  2
グループ-13-1
 10
0.0
 20
0.0
 30
0.0
  0
WIPEOUT
  5
1DC
330
1F
100
AcDbEntity
  8
一般
  6
Continuous
 62
     7
370
     5
 92
      152
310
98000000040000000C0000000E000000120000000C00000016000000000000C20C00000014000000010000006C000000070000000400000032F18802C64CC4C04927380721B6B6400000000000000000A40D20FEC5D1C1C04927380721B6B6400000000000000000A40D20FEC5D1C1C049273807A1F3B74000000000000000
310
0032F18802C64CC4C049273807A1F3B7400000000000000000
100
AcDbWipeout
 90
        0
 10
-10393.54695235993
 20
5814.129016408529
 30
0.0
 11
1270.000134574042
 21
0.0
 31
0.0
 12
0.0
 22
1270.000134574042
 32
0.0
 13
1.0
 23
1.0
340
0
 70
     4
280
     1
281
    50
282
    50
283
     0
360
0
 71
     2
 91
        5
 14
-0.5000000000000009
 24
0.4999999999999991
 14
0.4999999999999991
 24
0.4999999999999991
 14
0.4999999999999991
 24
0.2500000264909499
 14
-0.5000000000000009
 24
0.2500000264909499
 14
-0.5000000000000009
 24
0.4999999999999991
  0
MTEXT
  5
1DD
330
1F
100
AcDbEntity
  8
一般
 62
     7
100
AcDbMText
 10
-10393.54695235993
 20
6102.905188283529
 30
0.0
 40
244.326171875
 41
0.0
 71
     1
 72
     1
  1
{\f平成明朝|b0|i0|c128|p0;最高高さ}
 73
     1
 44
0.7828267384257843
  0
LINE
  5
1DE
330
1F
100
AcDbEntity
  8
一般
  6
Continuous
 62
     7
370
    13
100
AcDbLine
 10
-10372.28398506244
 20
5727.5
 30
0.0
 11
-8822.69320173769
 21
5727.5
 31
0.0
  0
LINE
  5
1DF
330
1F
100
AcDbEntity
  8
一般
  6
Continuous
 62
     7
370
    25
100
AcDbLine
 10
8134.956453480909
 20
-2000.01713386413
 30
0.0
 11
8134.956453480909
 21
1149.215670143734
 31
0.0
  0
WIPEOUT
  5
1E0
330
1F
100
AcDbEntity
  8
一般
  6
Continuous
 62
     7
370
     5
 92
      152
310
98000000040000000C0000000E000000120000000C00000016000000000000C20C00000014000000010000006C00000007000000040000002A399D59FB4FC140AC1FB8D23E5F95400000000000000000D6E3EB5C9B7BC340AC1FB8D23E5F95400000000000000000D6E3EB5C9B7BC340AC1FB8D23E559A4000000000000000
310
002A399D59FB4FC140AC1FB8D23E559A400000000000000000
100
AcDbWipeout
 90
        0
 10
8863.963672306932
 20
1367.811350705083
 30
0.0
 11
1111.250100930532
 21
0.0
 31
0.0
 12
0.0
 22
1111.250100930532
 32
0.0
 13
1.0
 23
1.0
340
0
 70
     4
280
     1
281
    50
282
    50
283
     0
360
0
 71
     2
 91
        5
 14
-0.5
 24
0.5
 14
0.5
 24
0.5
 14
0.5
 24
0.2142857402360336
 14
-0.5
 24
0.2142857402360336
 14
-0.5
 24
0.5
  0
MTEXT
  5
1E1
330
1F
100
AcDbEntity
  8
一般
 62
     7
100
AcDbMText
 10
8863.963672306932
 20
1656.587522580083
 30
0.0
 40
244.326171875
 41
0.0
 71
     1
 72
     1
  1
{\f平成明朝|b0|i0|c128|p0;1\f平成明朝|b0|i0|c128|p0;階\f平成明朝|b0|i0|c128|p0;軒高}
 73
     1
 44
0.7828267384257843
  0
LINE
  5
1E2
330
1F
100
AcDbEntity
  8
一般
  6
Continuous
 62
     7
370
    13
100
AcDbLine
 10
8810.0
 20
1330.030073399863
 30
0.0
 11
10400.0
 21
1330.030073399863
 31
0.0
  0
INSERT
  5
1E3
330
1F
100
AcDbEntity
  8
一般
 62
     7
100
AcDbBlockReference
  2
グループ-14-1
 10
0.0
 20
0.0
 30
0.0
  0
LINE
  5
1E4
330
1F
100
AcDbEntity
  8
一般
  6
Continuous
 62
     7
370
    25
100
AcDbLine
 10
7075.0
 20
1573.198251536119
 30
0.0
 11
7075.0
 21
1794.959338293898
 31
0.0
  0
LINE
  5
1E5
330
1F
100
AcDbEntity
  8
一般
  6
Continuous
 62
     7
370
    25
100
AcDbLine
 10
7040.553514768159
 20
1813.153767528456
 30
0.0
 11
7040.553514768159
 21
1856.235085985567
 31
0.0
  0
INSERT
  5
1E6
330
1F
100
AcDbEntity
  8
一般
 62
     7
100
AcDbBlockReference
  2
グループ-15-1
 10
0.0
 20
0.0
 30
0.0
  0
WIPEOUT
  5
1E7
330
1F
100
AcDbEntity
  8
一般
  6
Continuous
 62
     7
370
     5
 92
      128
310
80000000040000000C0000000E000000120000000C00000016000000000000C20C00000014000000010000005400000007000000030000000100000000E0B540000000000018B54000000000000000000100000000C8B940000000000088B34000000000000000000100000000C8B940000000000018B54000000000000000
310
00
100
AcDbWipeout
 90
        0
 10
5600.0
 20
5000.0
 30
0.0
 11
1000.0
 21
0.0
 31
0.0
 12
0.0
 22
1000.0
 32
0.0
 13
1.0
 23
1.0
340
0
 70
     4
280
     1
281
    50
282
    50
283
     0
360
0
 71
     2
 91
        4
 14
-0.4999999999999991
 24
0.0999999999999996
 14
0.5000000000000009
 24
0.5
 14
0.5000000000000009
 24
0.0999999999999996
 14
-0.4999999999999991
 24
0.0999999999999996
  0
POLYLINE
  5
1E8
330
1F
100
AcDbEntity
  8
一般
  6
Continuous
 62
     7
370
     5
100
AcDb2dPolyline
 66
     1
 10
0.0
 20
0.0
 30
0.0
 70
   129
  0
VERTEX
  5
1E9
330
1E8
100
AcDbEntity
  8
一般
  6
Continuous
 62
     7
370
     5
100
AcDbVertex
100
AcDb2dVertex
 10
5600.0
 20
5400.0
 30
0.0
  0
VERTEX
  5
1EA
330
1E8
100
AcDbEntity
  8
一般
  6
Continuous
 62
     7
370
     5
100
AcDbVertex
100
AcDb2dVertex
 10
6600.0
 20
5000.0
 30
0.0
  0
VERTEX
  5
1EB
330
1E8
100
AcDbEntity
  8
一般
  6
Continuous
 62
     7
370
     5
100
AcDbVertex
100
AcDb2dVertex
 10
6600.0
 20
5400.0
 30
0.0
  0
SEQEND
  5
1EC
330
1E8
100
AcDbEntity
  8
一般
  6
Continuous
 62
     7
370
     5
  0
WIPEOUT
  5
1ED
330
1F
100
AcDbEntity
  8
一般
  6
Continuous
 62
     7
370
     5
 92
      128
310
80000000040000000C0000000E000000120000000C00000016000000000000C20C0000001400000001000000540000000700000003000000FFFFFFFFFF7DBD40000000000088A34000000000000000000000000000B3C040000000000068A04000000000000000000000000000B3C040000000000088A34000000000000000
310
00
100
AcDbWipeout
 90
        0
 10
7550.0
 20
2100.0
 30
0.0
 11
1000.0
 21
0.0
 31
0.0
 12
0.0
 22
1000.0
 32
0.0
 13
1.0
 23
1.0
340
0
 70
     4
280
     1
281
    50
282
    50
283
     0
360
0
 71
     2
 91
        4
 14
-0.5000000000000009
 24
0.1000000000000001
 14
0.5
 24
0.5
 14
0.5
 24
0.1000000000000001
 14
-0.5000000000000009
 24
0.1000000000000001
  0
POLYLINE
  5
1EE
330
1F
100
AcDbEntity
  8
一般
  6
Continuous
 62
     7
370
     5
100
AcDb2dPolyline
 66
     1
 10
0.0
 20
0.0
 30
0.0
 70
   129
  0
VERTEX
  5
1EF
330
1EE
100
AcDbEntity
  8
一般
  6
Continuous
 62
     7
370
     5
100
AcDbVertex
100
AcDb2dVertex
 10
7550.0
 20
2500.0
 30
0.0
  0
VERTEX
  5
1F0
330
1EE
100
AcDbEntity
  8
一般
  6
Continuous
 62
     7
370
     5
100
AcDbVertex
100
AcDb2dVertex
 10
8550.0
 20
2100.0
 30
0.0
  0
VERTEX
  5
1F1
330
1EE
100
AcDbEntity
  8
一般
  6
Continuous
 62
     7
370
     5
100
AcDbVertex
100
AcDb2dVertex
 10
8550.0
 20
2500.0
 30
0.0
  0
SEQEND
  5
1F2
330
1EE
100
AcDbEntity
  8
一般
  6
Continuous
 62
     7
370
     5
  0
MTEXT
  5
1F3
330
1F
100
AcDbEntity
  8
一般
 62
     7
100
AcDbMText
 10
5991.470831755707
 20
5794.401171875
 30
0.0
 40
244.326171875
 41
0.0
 71
     1
 72
     1
  1
{\f平成明朝|b0|i0|c128|p0;10}
 73
     1
 44
0.7828267384257843
  0
MTEXT
  5
1F4
330
1F
100
AcDbEntity
  8
一般
 62
     7
100
AcDbMText
 10
7959.024995962778
 20
2929.713671875
 30
0.0
 40
244.326171875
 41
0.0
 71
     1
 72
     1
  1
{\f平成明朝|b0|i0|c128|p0;10}
 73
     1
 44
0.7828267384257843
  0
WIPEOUT
  5
1F5
330
1F
100
AcDbEntity
  8
一般
  6
Continuous
 62
     7
370
     5
 92
      152
310
98000000040000000C0000000E000000120000000C00000016000000000000C20C00000014000000010000006C000000070000000400000000000000007CBA40FFFFFFFF7FDAB340000000000000000000000000C01ABB40FFFFFFFF7FDAB340000000000000000000000000C01ABB40FFFFFFFFFF17B54000000000000000
310
0000000000007CBA40FFFFFFFFFF17B5400000000000000000
100
AcDbWipeout
 90
        0
 10
6780.0
 20
5082.5
 30
0.0
 11
317.5
 21
0.0
 31
0.0
 12
0.0
 22
317.5
 32
0.0
 13
1.0
 23
1.0
340
0
 70
     4
280
     1
281
    50
282
    50
283
     0
360
0
 71
     2
 91
        5
 14
-0.5
 24
0.5000000000000036
 14
0.0
 24
0.5000000000000036
 14
0.0
 24
-0.4999999999999964
 14
-0.5
 24
-0.4999999999999964
 14
-0.5
 24
0.5000000000000036
  0
MTEXT
  5
1F6
330
1F
100
AcDbEntity
  8
一般
 62
     7
100
AcDbMText
 10
6780.0
 20
5371.276171875
 30
0.0
 40
244.326171875
 41
0.0
 71
     1
 72
     1
  1
{\f平成明朝|b0|i0|c128|p0;4}
 73
     1
 44
0.7828267384257843
  0
WIPEOUT
  5
1F7
330
1F
100
AcDbEntity
  8
一般
  6
Continuous
 62
     7
370
     5
 92
      152
310
98000000040000000C0000000E000000120000000C00000016000000000000C20C00000014000000010000006C0000000700000004000000565511338311C14000000000E009A140000000000000000056551133E360C14000000000E009A140000000000000000056551133E360C14000000000E084A34000000000000000
310
00565511338311C14000000000E084A3400000000000000000
100
AcDbWipeout
 90
        0
 10
8739.02499596278
 20
2180.9375
 30
0.0
 11
317.5
 21
0.0
 31
0.0
 12
0.0
 22
317.5
 32
0.0
 13
1.0
 23
1.0
340
0
 70
     4
280
     1
281
    50
282
    50
283
     0
360
0
 71
     2
 91
        5
 14
-0.5
 24
0.5
 14
0.0
 24
0.5
 14
0.0
 24
-0.5
 14
-0.5
 24
-0.5
 14
-0.5
 24
0.5
  0
MTEXT
  5
1F8
330
1F
100
AcDbEntity
  8
一般
 62
     7
100
AcDbMText
 10
8739.02499596278
 20
2469.713671875
 30
0.0
 40
244.326171875
 41
0.0
 71
     1
 72
     1
  1
{\f平成明朝|b0|i0|c128|p0;4}
 73
     1
 44
0.7828267384257843
  0
INSERT
  5
1F9
330
1F
100
AcDbEntity
  8
一般
 62
     7
100
AcDbBlockReference
  2
グループ-16-1
 10
0.0
 20
0.0
 30
0.0
  0
LINE
  5
1FA
330
1F
100
AcDbEntity
  8
一般
  6
Continuous
 62
     7
370
    13
100
AcDbLine
 10
8059.956453480911
 20
-3418.804336529754
 30
0.0
 11
8059.956453480911
 21
-2876.669286326138
 31
0.0
  0
LINE
  5
1FB
330
1F
100
AcDbEntity
  8
一般
  6
Continuous
 62
     7
370
    25
100
AcDbLine
 10
8711.932804767117
 20
1187.683369985981
 30
0.0
 11
7040.553514768159
 21
1856.235085985566
 31
0.0
  0
LINE
  5
1FC
330
1F
100
AcDbEntity
  8
一般
  6
Continuous
 62
     7
370
    25
100
AcDbLine
 10
8581.946068043375
 20
970.4198243187491
 30
0.0
 11
7075.0
 21
1573.198251536119
 31
0.0
  0
LINE
  5
1FD
330
1F
100
AcDbEntity
  8
一般
  6
Continuous
 62
     7
370
    25
100
AcDbLine
 10
8711.932804767117
 20
1187.683369985981
 30
0.0
 11
8697.07717771295
 21
1150.544302350572
 31
0.0
  0
LINE
  5
1FE
330
1F
100
AcDbEntity
  8
一般
  6
Continuous
 62
     7
370
    25
100
AcDbLine
 10
8697.07717771295
 20
1150.544302350572
 30
0.0
 11
7040.553514768159
 21
1813.153767528456
 31
0.0
  0
LINE
  5
1FF
330
1F
100
AcDbEntity
  8
一般
  6
Continuous
 62
     7
370
    13
100
AcDbLine
 10
3779.956453480909
 20
-1850.01713386413
 30
0.0
 11
-2220.043546519091
 21
-1850.017133864129
 31
0.0
  0
LINE
  5
200
330
1F
100
AcDbEntity
  8
一般
  6
Continuous
 62
     7
370
    13
100
AcDbLine
 10
-2220.043546519091
 20
-1850.017133864129
 30
0.0
 11
-2220.043546519091
 21
-2000.01713386413
 31
0.0
  0
LINE
  5
201
330
1F
100
AcDbEntity
  8
一般
  6
Continuous
 62
     7
370
    13
100
AcDbLine
 10
3779.956453480909
 20
-1850.01713386413
 30
0.0
 11
3779.956453480909
 21
-2000.01713386413
 31
0.0
  0
WIPEOUT
  5
202
330
1F
100
AcDbEntity
  8
一般
  6
Continuous
 62
     7
370
    13
 92
      152
310
98000000040000000C0000000E000000120000000C00000016000000000000C20C00000014000000010000006C0000000700000004000000C19454449BDE65405E288A8B11049AC00000000000000000614A2AA24DAF7D405E288A8B11049AC00000000000000000614A2AA24DAF7D405E288A8B115C9CC000000000000000
310
00C19454449BDE65405E288A8B115C9CC00000000000000000
100
AcDbWipeout
 90
        0
 10
174.9564534809087
 20
-1815.01713386413
 30
0.0
 11
300.0
 21
0.0
 31
0.0
 12
0.0
 22
300.0
 32
0.0
 13
1.0
 23
1.0
340
0
 70
     4
280
     1
281
    50
282
    50
283
     0
360
0
 71
     2
 91
        5
 14
-0.4999999999999999
 24
0.0
 14
0.5000000000000002
 24
0.0
 14
0.5000000000000002
 24
0.5
 14
-0.4999999999999999
 24
0.5
 14
-0.4999999999999999
 24
0.0
  0
POLYLINE
  5
203
330
1F
100
AcDbEntity
  8
一般
  6
Continuous
 62
     7
370
    13
100
AcDb2dPolyline
 66
     1
 10
0.0
 20
0.0
 30
0.0
 70
   129
  0
VERTEX
  5
204
330
203
100
AcDbEntity
  8
一般
  6
Continuous
 62
     7
370
    13
100
AcDbVertex
100
AcDb2dVertex
 10
174.9564534809087
 20
-1665.01713386413
 30
0.0
  0
VERTEX
  5
205
330
203
100
AcDbEntity
  8
一般
  6
Continuous
 62
     7
370
    13
100
AcDbVertex
100
AcDb2dVertex
 10
474.9564534809087
 20
-1665.01713386413
 30
0.0
  0
VERTEX
  5
206
330
203
100
AcDbEntity
  8
一般
  6
Continuous
 62
     7
370
    13
100
AcDbVertex
100
AcDb2dVertex
 10
474.9564534809087
 20
-1815.01713386413
 30
0.0
  0
VERTEX
  5
207
330
203
100
AcDbEntity
  8
一般
  6
Continuous
 62
     7
370
    13
100
AcDbVertex
100
AcDb2dVertex
 10
174.9564534809087
 20
-1815.01713386413
 30
0.0
  0
SEQEND
  5
208
330
203
100
AcDbEntity
  8
一般
  6
Continuous
 62
     7
370
    13
  0
LINE
  5
209
330
1F
100
AcDbEntity
  8
一般
  6
Continuous
 62
     7
370
    13
100
AcDbLine
 10
174.9564534809087
 20
-1665.01713386413
 30
0.0
 11
174.9564534809087
 21
-1815.01713386413
 31
0.0
  0
LINE
  5
20A
330
1F
100
AcDbEntity
  8
一般
  6
Continuous
 62
     7
370
    13
100
AcDbLine
 10
224.9564534809087
 20
-1665.01713386413
 30
0.0
 11
224.9564534809087
 21
-1815.01713386413
 31
0.0
  0
LINE
  5
20B
330
1F
100
AcDbEntity
  8
一般
  6
Continuous
 62
     7
370
    13
100
AcDbLine
 10
274.9564534809087
 20
-1665.01713386413
 30
0.0
 11
274.9564534809087
 21
-1815.01713386413
 31
0.0
  0
LINE
  5
20C
330
1F
100
AcDbEntity
  8
一般
  6
Continuous
 62
     7
370
    13
100
AcDbLine
 10
324.9564534809087
 20
-1665.01713386413
 30
0.0
 11
324.9564534809087
 21
-1815.01713386413
 31
0.0
  0
LINE
  5
20D
330
1F
100
AcDbEntity
  8
一般
  6
Continuous
 62
     7
370
    13
100
AcDbLine
 10
374.9564534809087
 20
-1665.01713386413
 30
0.0
 11
374.9564534809087
 21
-1815.01713386413
 31
0.0
  0
LINE
  5
20E
330
1F
100
AcDbEntity
  8
一般
  6
Continuous
 62
     7
370
    13
100
AcDbLine
 10
424.9564534809087
 20
-1665.01713386413
 30
0.0
 11
424.9564534809087
 21
-1815.01713386413
 31
0.0
  0
WIPEOUT
  5
20F
330
1F
100
AcDbEntity
  8
一般
  6
Continuous
 62
     7
370
    13
 92
      152
310
98000000040000000C0000000E000000120000000C00000016000000000000C20C00000014000000010000006C00000007000000040000004C4945B4E923A3405E288A8B11049AC000000000000000004C4945B4E97BA5405E288A8B11049AC000000000000000004C4945B4E97BA5405E288A8B115C9CC000000000000000
310
004C4945B4E923A3405E288A8B115C9CC00000000000000000
100
AcDbWipeout
 90
        0
 10
2449.956453480909
 20
-1815.01713386413
 30
0.0
 11
300.0
 21
0.0
 31
0.0
 12
0.0
 22
300.0
 32
0.0
 13
1.0
 23
1.0
340
0
 70
     4
280
     1
281
    50
282
    50
283
     0
360
0
 71
     2
 91
        5
 14
-0.5
 24
0.0
 14
0.5
 24
0.0
 14
0.5
 24
0.5
 14
-0.5
 24
0.5
 14
-0.5
 24
0.0
  0
POLYLINE
  5
210
330
1F
100
AcDbEntity
  8
一般
  6
Continuous
 62
     7
370
    13
100
AcDb2dPolyline
 66
     1
 10
0.0
 20
0.0
 30
0.0
 70
   129
  0
VERTEX
  5
211
330
210
100
AcDbEntity
  8
一般
  6
Continuous
 62
     7
370
    13
100
AcDbVertex
100
AcDb2dVertex
 10
2449.956453480909
 20
-1665.01713386413
 30
0.0
  0
VERTEX
  5
212
330
210
100
AcDbEntity
  8
一般
  6
Continuous
 62
     7
370
    13
100
AcDbVertex
100
AcDb2dVertex
 10
2749.956453480909
 20
-1665.01713386413
 30
0.0
  0
VERTEX
  5
213
330
210
100
AcDbEntity
  8
一般
  6
Continuous
 62
     7
370
    13
100
AcDbVertex
100
AcDb2dVertex
 10
2749.956453480909
 20
-1815.01713386413
 30
0.0
  0
VERTEX
  5
214
330
210
100
AcDbEntity
  8
一般
  6
Continuous
 62
     7
370
    13
100
AcDbVertex
100
AcDb2dVertex
 10
2449.956453480909
 20
-1815.01713386413
 30
0.0
  0
SEQEND
  5
215
330
210
100
AcDbEntity
  8
一般
  6
Continuous
 62
     7
370
    13
  0
LINE
  5
216
330
1F
100
AcDbEntity
  8
一般
  6
Continuous
 62
     7
370
    13
100
AcDbLine
 10
2449.956453480909
 20
-1665.01713386413
 30
0.0
 11
2449.956453480909
 21
-1815.01713386413
 31
0.0
  0
LINE
  5
217
330
1F
100
AcDbEntity
  8
一般
  6
Continuous
 62
     7
370
    13
100
AcDbLine
 10
2499.956453480909
 20
-1665.01713386413
 30
0.0
 11
2499.956453480909
 21
-1815.01713386413
 31
0.0
  0
LINE
  5
218
330
1F
100
AcDbEntity
  8
一般
  6
Continuous
 62
     7
370
    13
100
AcDbLine
 10
2549.956453480909
 20
-1665.01713386413
 30
0.0
 11
2549.956453480909
 21
-1815.01713386413
 31
0.0
  0
LINE
  5
219
330
1F
100
AcDbEntity
  8
一般
  6
Continuous
 62
     7
370
    13
100
AcDbLine
 10
2599.956453480909
 20
-1665.01713386413
 30
0.0
 11
2599.956453480909
 21
-1815.01713386413
 31
0.0
  0
LINE
  5
21A
330
1F
100
AcDbEntity
  8
一般
  6
Continuous
 62
     7
370
    13
100
AcDbLine
 10
2649.956453480909
 20
-1665.01713386413
 30
0.0
 11
2649.956453480909
 21
-1815.01713386413
 31
0.0
  0
LINE
  5
21B
330
1F
100
AcDbEntity
  8
一般
  6
Continuous
 62
     7
370
    13
100
AcDbLine
 10
2699.956453480909
 20
-1665.01713386413
 30
0.0
 11
2699.956453480909
 21
-1815.01713386413
 31
0.0
  0
WIPEOUT
  5
21C
330
1F
100
AcDbEntity
  8
一般
  6
Continuous
 62
     7
370
    13
 92
      152
310
98000000040000000C0000000E000000120000000C00000016000000000000C20C00000014000000010000006C0000000700000004000000A6A422DAF43BB4405E288A8B11049AC00000000000000000A6A422DAF467B5405E288A8B11049AC00000000000000000A6A422DAF467B5405E288A8B115C9CC000000000000000
310
00A6A422DAF43BB4405E288A8B115C9CC00000000000000000
100
AcDbWipeout
 90
        0
 10
5179.956453480909
 20
-1815.01713386413
 30
0.0
 11
300.0
 21
0.0
 31
0.0
 12
0.0
 22
300.0
 32
0.0
 13
1.0
 23
1.0
340
0
 70
     4
280
     1
281
    50
282
    50
283
     0
360
0
 71
     2
 91
        5
 14
-0.5
 24
0.0
 14
0.5
 24
0.0
 14
0.5
 24
0.5
 14
-0.5
 24
0.5
 14
-0.5
 24
0.0
  0
POLYLINE
  5
21D
330
1F
100
AcDbEntity
  8
一般
  6
Continuous
 62
     7
370
    13
100
AcDb2dPolyline
 66
     1
 10
0.0
 20
0.0
 30
0.0
 70
   129
  0
VERTEX
  5
21E
330
21D
100
AcDbEntity
  8
一般
  6
Continuous
 62
     7
370
    13
100
AcDbVertex
100
AcDb2dVertex
 10
5179.956453480909
 20
-1665.01713386413
 30
0.0
  0
VERTEX
  5
21F
330
21D
100
AcDbEntity
  8
一般
  6
Continuous
 62
     7
370
    13
100
AcDbVertex
100
AcDb2dVertex
 10
5479.956453480909
 20
-1665.01713386413
 30
0.0
  0
VERTEX
  5
220
330
21D
100
AcDbEntity
  8
一般
  6
Continuous
 62
     7
370
    13
100
AcDbVertex
100
AcDb2dVertex
 10
5479.956453480909
 20
-1815.01713386413
 30
0.0
  0
VERTEX
  5
221
330
21D
100
AcDbEntity
  8
一般
  6
Continuous
 62
     7
370
    13
100
AcDbVertex
100
AcDb2dVertex
 10
5179.956453480909
 20
-1815.01713386413
 30
0.0
  0
SEQEND
  5
222
330
21D
100
AcDbEntity
  8
一般
  6
Continuous
 62
     7
370
    13
  0
LINE
  5
223
330
1F
100
AcDbEntity
  8
一般
  6
Continuous
 62
     7
370
    13
100
AcDbLine
 10
5179.956453480909
 20
-1665.01713386413
 30
0.0
 11
5179.956453480909
 21
-1815.01713386413
 31
0.0
  0
LINE
  5
224
330
1F
100
AcDbEntity
  8
一般
  6
Continuous
 62
     7
370
    13
100
AcDbLine
 10
5229.956453480909
 20
-1665.01713386413
 30
0.0
 11
5229.956453480909
 21
-1815.01713386413
 31
0.0
  0
LINE
  5
225
330
1F
100
AcDbEntity
  8
一般
  6
Continuous
 62
     7
370
    13
100
AcDbLine
 10
5279.956453480909
 20
-1665.01713386413
 30
0.0
 11
5279.956453480909
 21
-1815.01713386413
 31
0.0
  0
LINE
  5
226
330
1F
100
AcDbEntity
  8
一般
  6
Continuous
 62
     7
370
    13
100
AcDbLine
 10
5329.956453480909
 20
-1665.01713386413
 30
0.0
 11
5329.956453480909
 21
-1815.01713386413
 31
0.0
  0
LINE
  5
227
330
1F
100
AcDbEntity
  8
一般
  6
Continuous
 62
     7
370
    13
100
AcDbLine
 10
5379.956453480909
 20
-1665.01713386413
 30
0.0
 11
5379.956453480909
 21
-1815.01713386413
 31
0.0
  0
LINE
  5
228
330
1F
100
AcDbEntity
  8
一般
  6
Continuous
 62
     7
370
    13
100
AcDbLine
 10
5429.956453480909
 20
-1665.01713386413
 30
0.0
 11
5429.956453480909
 21
-1815.01713386413
 31
0.0
  0
WIPEOUT
  5
229
330
1F
100
AcDbEntity
  8
一般
  6
Continuous
 62
     7
370
    13
 92
      152
310
98000000040000000C0000000E000000120000000C00000016000000000000C20C00000014000000010000006C0000000700000004000000B5B6BA4B16A0AEC05E288A8B11049AC00000000000000000B5B6BA4B1648ACC05E288A8B11049AC00000000000000000B5B6BA4B1648ACC05E288A8B115C9CC000000000000000
310
00B5B6BA4B16A0AEC05E288A8B115C9CC00000000000000000
100
AcDbWipeout
 90
        0
 10
-3920.043546519091
 20
-1815.01713386413
 30
0.0
 11
300.0
 21
0.0
 31
0.0
 12
0.0
 22
300.0
 32
0.0
 13
1.0
 23
1.0
340
0
 70
     4
280
     1
281
    50
282
    50
283
     0
360
0
 71
     2
 91
        5
 14
-0.5000000000000018
 24
0.0
 14
0.4999999999999982
 24
0.0
 14
0.4999999999999982
 24
0.5
 14
-0.5000000000000018
 24
0.5
 14
-0.5000000000000018
 24
0.0
  0
POLYLINE
  5
22A
330
1F
100
AcDbEntity
  8
一般
  6
Continuous
 62
     7
370
    13
100
AcDb2dPolyline
 66
     1
 10
0.0
 20
0.0
 30
0.0
 70
   129
  0
VERTEX
  5
22B
330
22A
100
AcDbEntity
  8
一般
  6
Continuous
 62
     7
370
    13
100
AcDbVertex
100
AcDb2dVertex
 10
-3920.043546519091
 20
-1665.01713386413
 30
0.0
  0
VERTEX
  5
22C
330
22A
100
AcDbEntity
  8
一般
  6
Continuous
 62
     7
370
    13
100
AcDbVertex
100
AcDb2dVertex
 10
-3620.043546519091
 20
-1665.01713386413
 30
0.0
  0
VERTEX
  5
22D
330
22A
100
AcDbEntity
  8
一般
  6
Continuous
 62
     7
370
    13
100
AcDbVertex
100
AcDb2dVertex
 10
-3620.043546519091
 20
-1815.01713386413
 30
0.0
  0
VERTEX
  5
22E
330
22A
100
AcDbEntity
  8
一般
  6
Continuous
 62
     7
370
    13
100
AcDbVertex
100
AcDb2dVertex
 10
-3920.043546519091
 20
-1815.01713386413
 30
0.0
  0
SEQEND
  5
22F
330
22A
100
AcDbEntity
  8
一般
  6
Continuous
 62
     7
370
    13
  0
LINE
  5
230
330
1F
100
AcDbEntity
  8
一般
  6
Continuous
 62
     7
370
    13
100
AcDbLine
 10
-3920.043546519091
 20
-1665.01713386413
 30
0.0
 11
-3920.043546519091
 21
-1815.01713386413
 31
0.0
  0
LINE
  5
231
330
1F
100
AcDbEntity
  8
一般
  6
Continuous
 62
     7
370
    13
100
AcDbLine
 10
-3870.043546519091
 20
-1665.01713386413
 30
0.0
 11
-3870.043546519091
 21
-1815.01713386413
 31
0.0
  0
LINE
  5
232
330
1F
100
AcDbEntity
  8
一般
  6
Continuous
 62
     7
370
    13
100
AcDbLine
 10
-3820.043546519091
 20
-1665.01713386413
 30
0.0
 11
-3820.043546519091
 21
-1815.01713386413
 31
0.0
  0
LINE
  5
233
330
1F
100
AcDbEntity
  8
一般
  6
Continuous
 62
     7
370
    13
100
AcDbLine
 10
-3770.043546519091
 20
-1665.01713386413
 30
0.0
 11
-3770.043546519091
 21
-1815.01713386413
 31
0.0
  0
LINE
  5
234
330
1F
100
AcDbEntity
  8
一般
  6
Continuous
 62
     7
370
    13
100
AcDbLine
 10
-3720.043546519091
 20
-1665.01713386413
 30
0.0
 11
-3720.043546519091
 21
-1815.01713386413
 31
0.0
  0
LINE
  5
235
330
1F
100
AcDbEntity
  8
一般
  6
Continuous
 62
     7
370
    13
100
AcDbLine
 10
-3670.043546519091
 20
-1665.01713386413
 30
0.0
 11
-3670.043546519091
 21
-1815.01713386413
 31
0.0
  0
VIEWPORT
  5
236
330
1B
100
AcDbEntity
 67
     1
  8
0
100
AcDbViewport
 10
128.5
 20
97.5
 30
0.0
 40
314.226
 41
222.18
 68
     1
 69
     1
 12
128.5
 22
97.5
 13
0.0
 23
0.0
 14
10.0
 24
10.0
 15
10.0
 25
10.0
 16
0.0
 26
0.0
 36
1.0
 17
0.0
 27
0.0
 37
0.0
 42
50.0
 43
0.0
 44
0.0
 45
222.18
 50
0.0
 51
0.0
 72
   100
 90
   557152
  1

281
     0
 71
     1
 74
     0
110
0.0
120
0.0
130
0.0
111
1.0
121
0.0
131
0.0
112
0.0
122
1.0
132
0.0
 79
     0
146
0.0
170
     0
  0
ENDSEC
  0
SECTION
  2
OBJECTS
  0
DICTIONARY
  5
C
330
0
100
AcDbDictionary
281
     1
  3
ACAD_GROUP
350
D
  3
ACAD_LAYOUT
350
1A
  3
ACAD_MATERIAL
350
3B
  3
ACAD_MLEADERSTYLE
350
25E
  3
ACAD_MLINESTYLE
350
17
  3
ACAD_PLOTSETTINGS
350
19
  3
ACAD_PLOTSTYLENAME
350
E
  3
ACAD_TABLESTYLE
350
25D
  3
ACAD_VISUALSTYLE
350
2A
  3
ACAD_WIPEOUT_VARS
350
6F
  3
AcDbVariableDictionary
350
25F
  0
DICTIONARY
  5
D
102
{ACAD_REACTORS
330
C
102
}
330
C
100
AcDbDictionary
281
     1
  0
DICTIONARY
  5
1A
102
{ACAD_REACTORS
330
C
102
}
330
C
100
AcDbDictionary
281
     1
  3
Layout1
350
1E
  3
Model
350
22
  0
DICTIONARY
  5
3B
102
{ACAD_REACTORS
330
C
102
}
330
C
100
AcDbDictionary
281
     1
  3
ByBlock
350
3D
  3
ByLayer
350
3C
  3
Global
350
3E
  0
DICTIONARY
  5
25E
102
{ACAD_REACTORS
330
C
102
}
330
C
100
AcDbDictionary
281
     1
  0
DICTIONARY
  5
17
102
{ACAD_REACTORS
330
C
102
}
330
C
100
AcDbDictionary
281
     1
  3
Standard
350
18
  0
DICTIONARY
  5
19
102
{ACAD_REACTORS
330
C
102
}
330
C
100
AcDbDictionary
281
     1
  0
ACDBDICTIONARYWDFLT
  5
E
102
{ACAD_REACTORS
330
C
102
}
330
C
100
AcDbDictionary
281
     1
  3
Normal
350
F
100
AcDbDictionaryWithDefault
340
F
  0
DICTIONARY
  5
25D
102
{ACAD_REACTORS
330
C
102
}
330
C
100
AcDbDictionary
281
     1
  0
DICTIONARY
  5
2A
102
{ACAD_REACTORS
330
C
102
}
330
C
100
AcDbDictionary
281
     1
  3
2dWireframe
350
2F
  3
3D Hidden
350
31
  3
3dWireframe
350
30
  3
Basic
350
32
  3
Brighten
350
36
  3
ColorChange
350
3A
  3
Conceptual
350
34
  3
Dim
350
35
  3
Facepattern
350
39
  3
Flat
350
2B
  3
FlatWithEdges
350
2C
  3
Gouraud
350
2D
  3
GouraudWithEdges
350
2E
  3
Linepattern
350
38
  3
Realistic
350
33
  3
Thicken
350
37
  0
WIPEOUTVARIABLES
  5
6F
102
{ACAD_REACTORS
330
C
102
}
330
C
100
AcDbWipeoutVariables
 70
     0
  0
DICTIONARY
  5
25F
102
{ACAD_REACTORS
330
C
102
}
330
C
100
AcDbDictionary
281
     1
  3
XCLIPFRAME
350
260
  0
LAYOUT
  5
1E
102
{ACAD_REACTORS
330
1A
102
}
330
1A
100
AcDbPlotSettings
  1

  2
none_device
  4
ISO_A4_(210.00_x_297.00_MM)
  6

 40
7.5
 41
20.0
 42
7.5
 43
20.0
 44
210.0
 45
297.0
 46
0.0
 47
0.0
 48
0.0
 49
0.0
140
0.0
141
0.0
142
1.0
143
1.0
 70
   688
 72
     1
 73
     1
 74
     5
  7

 75
    16
 76
     0
 77
     2
 78
   300
147
1.0
148
0.0
149
0.0
100
AcDbLayout
  1
Layout1
 70
     1
 71
     1
 10
-20.0
 20
-7.5
 11
277.0
 21
202.5
 12
0.0
 22
0.0
 32
0.0
 14
1.000000000000000E+20
 24
1.000000000000000E+20
 34
1.000000000000000E+20
 15
-1.000000000000000E+20
 25
-1.000000000000000E+20
 35
-1.000000000000000E+20
146
0.0
 13
0.0
 23
0.0
 33
0.0
 16
1.0
 26
0.0
 36
0.0
 17
0.0
 27
1.0
 37
0.0
 76
     0
330
1B
331
236
  0
LAYOUT
  5
22
102
{ACAD_REACTORS
330
1A
102
}
330
1A
100
AcDbPlotSettings
  1

  2
none_device
  4

  6

 40
0.0
 41
0.0
 42
0.0
 43
0.0
 44
0.0
 45
0.0
 46
0.0
 47
0.0
 48
0.0
 49
0.0
140
0.0
141
0.0
142
1.0
143
1.0
 70
  1712
 72
     0
 73
     0
 74
     0
  7

 75
     0
 76
     0
 77
     2
 78
   300
147
1.0
148
0.0
149
0.0
100
AcDbLayout
  1
Model
 70
     1
 71
     0
 10
0.0
 20
0.0
 11
12.0
 21
9.0
 12
0.0
 22
0.0
 32
0.0
 14
-10940.6
 24
-4218.757612058747
 34
-140.0175
 15
10400.0
 25
6131.629016408529
 35
140.0175
146
0.0
 13
0.0
 23
0.0
 33
0.0
 16
1.0
 26
0.0
 36
0.0
 17
0.0
 27
1.0
 37
0.0
 76
     0
330
1F
331
29
  0
MATERIAL
  5
3D
102
{ACAD_REACTORS
330
3B
102
}
102
{ACAD_XDICTIONARY
360
259
102
}
330
3B
100
AcDbMaterial
  1
ByBlock
  0
MATERIAL
  5
3C
102
{ACAD_REACTORS
330
3B
102
}
102
{ACAD_XDICTIONARY
360
257
102
}
330
3B
100
AcDbMaterial
  1
ByLayer
  0
MATERIAL
  5
3E
102
{ACAD_REACTORS
330
3B
102
}
102
{ACAD_XDICTIONARY
360
25B
102
}
330
3B
100
AcDbMaterial
  1
Global
  0
MLINESTYLE
  5
18
102
{ACAD_REACTORS
330
17
102
}
330
17
100
AcDbMlineStyle
  2
Standard
 70
     0
  3

 62
   256
 51
90.0
 52
90.0
 71
     2
 49
0.5
 62
   256
  6
BYLAYER
 49
-0.5
 62
   256
  6
BYLAYER
  0
ACDBPLACEHOLDER
  5
F
102
{ACAD_REACTORS
330
E
102
}
330
E
  0
VISUALSTYLE
  5
2F
102
{ACAD_REACTORS
330
2A
102
}
102
{ACAD_XDICTIONARY
360
23F
102
}
330
2A
100
AcDbVisualStyle
  2
2dWireframe
 70
     4
 71
     0
 72
     2
 73
     0
 90
        0
 40
-0.6
 41
-30.0
 62
     5
 63
     7
421
 16777215
 74
     1
 91
        4
 64
     7
 65
   257
 75
     1
175
     1
 42
1.0
 92
        0
 66
   257
 43
1.0
 76
     1
 77
     6
 78
     2
 67
     7
 79
     5
170
     0
171
     0
290
     0
174
     0
 93
        1
 44
0.0
173
     0
291
     0
 45
0.0
1001
ACAD
1000
AcDbSavedByObjectVersion
1070
     0
  0
VISUALSTYLE
  5
31
102
{ACAD_REACTORS
330
2A
102
}
102
{ACAD_XDICTIONARY
360
243
102
}
330
2A
100
AcDbVisualStyle
  2
3D Hidden
 70
     6
 71
     1
 72
     2
 73
     2
 90
        0
 40
-0.6
 41
-30.0
 62
     5
 63
     7
421
 16777215
 74
     2
 91
        2
 64
     7
 65
   257
 75
     2
175
     1
 42
40.0
 92
        0
 66
   257
 43
1.0
 76
     1
 77
     6
 78
     2
 67
     7
 79
     3
170
     0
171
     0
290
     0
174
     0
 93
        1
 44
0.0
173
     0
291
     0
 45
0.0
1001
ACAD
1000
AcDbSavedByObjectVersion
1070
     0
  0
VISUALSTYLE
  5
30
102
{ACAD_REACTORS
330
2A
102
}
102
{ACAD_XDICTIONARY
360
241
102
}
330
2A
100
AcDbVisualStyle
  2
3dWireframe
 70
     5
 71
     0
 72
     2
 73
     0
 90
        0
 40
-0.6
 41
-30.0
 62
     5
 63
     7
421
 16777215
 74
     1
 91
        4
 64
     7
 65
   257
 75
     1
175
     1
 42
1.0
 92
        0
 66
   257
 43
1.0
 76
     1
 77
     6
 78
     2
 67
     7
 79
     5
170
     0
171
     0
290
     0
174
     0
 93
        1
 44
0.0
173
     0
291
     0
 45
0.0
1001
ACAD
1000
AcDbSavedByObjectVersion
1070
     0
  0
VISUALSTYLE
  5
32
102
{ACAD_REACTORS
330
2A
102
}
102
{ACAD_XDICTIONARY
360
245
102
}
330
2A
100
AcDbVisualStyle
  2
Basic
 70
     7
 71
     1
 72
     0
 73
     1
 90
        0
 40
-0.6
 41
-30.0
 62
     5
 63
     7
421
 16777215
 74
     0
 91
        4
 64
     7
 65
   257
 75
     1
175
     1
 42
1.0
 92
        8
 66
     7
 43
1.0
 76
     1
 77
     6
 78
     2
 67
     7
 79
     5
170
     0
171
     0
290
     0
174
     0
 93
        1
 44
0.0
173
     0
291
     1
 45
0.0
1001
ACAD
1000
AcDbSavedByObjectVersion
1070
     0
  0
VISUALSTYLE
  5
36
102
{ACAD_REACTORS
330
2A
102
}
102
{ACAD_XDICTIONARY
360
24D
102
}
330
2A
100
AcDbVisualStyle
  2
Brighten
 70
    12
 71
     2
 72
     2
 73
     0
 90
        0
 40
-0.6
 41
-30.0
 62
     5
 63
     7
421
 16777215
 74
     1
 91
        4
 64
     7
 65
   257
 75
     1
175
     1
 42
1.0
 92
        8
 66
     7
 43
1.0
 76
     1
 77
     6
 78
     2
 67
     7
 79
     5
170
     0
171
     0
290
     0
174
     0
 93
        1
 44
50.0
173
     0
291
     1
 45
0.0
1001
ACAD
1000
AcDbSavedByObjectVersion
1070
     0
  0
VISUALSTYLE
  5
3A
102
{ACAD_REACTORS
330
2A
102
}
102
{ACAD_XDICTIONARY
360
255
102
}
330
2A
100
AcDbVisualStyle
  2
ColorChange
 70
    16
 71
     2
 72
     2
 73
     3
 90
        0
 40
-0.6
 41
-30.0
 62
     5
 63
     8
421
  8421504
 74
     1
 91
        4
 64
     7
 65
   257
 75
     1
175
     1
 42
1.0
 92
        8
 66
     8
424
  8421504
 43
1.0
 76
     1
 77
     6
 78
     2
 67
     7
 79
     5
170
     0
171
     0
290
     0
174
     0
 93
        1
 44
0.0
173
     0
291
     1
 45
0.0
1001
ACAD
1000
AcDbSavedByObjectVersion
1070
     0
  0
VISUALSTYLE
  5
34
102
{ACAD_REACTORS
330
2A
102
}
102
{ACAD_XDICTIONARY
360
249
102
}
330
2A
100
AcDbVisualStyle
  2
Conceptual
 70
     9
 71
     3
 72
     2
 73
     0
 90
        0
 40
-0.6
 41
-30.0
 62
     5
 63
     7
421
 16777215
 74
     2
 91
        2
 64
     7
 65
   257
 75
     1
175
     1
 42
40.0
 92
        8
 66
     7
 43
1.0
 76
     1
 77
     6
 78
     2
 67
     7
 79
     3
170
     0
171
     0
290
     0
174
     0
 93
        1
 44
0.0
173
     0
291
     0
 45
0.0
1001
ACAD
1000
AcDbSavedByObjectVersion
1070
     0
  0
VISUALSTYLE
  5
35
102
{ACAD_REACTORS
330
2A
102
}
102
{ACAD_XDICTIONARY
360
24B
102
}
330
2A
100
AcDbVisualStyle
  2
Dim
 70
    11
 71
     2
 72
     2
 73
     0
 90
        0
 40
-0.6
 41
-30.0
 62
     5
 63
     7
421
 16777215
 74
     1
 91
        4
 64
     7
 65
   257
 75
     1
175
     1
 42
1.0
 92
        8
 66
     7
 43
1.0
 76
     1
 77
     6
 78
     2
 67
     7
 79
     5
170
     0
171
     0
290
     0
174
     0
 93
        1
 44
-50.0
173
     0
291
     1
 45
0.0
1001
ACAD
1000
AcDbSavedByObjectVersion
1070
     0
  0
VISUALSTYLE
  5
39
102
{ACAD_REACTORS
330
2A
102
}
102
{ACAD_XDICTIONARY
360
253
102
}
330
2A
100
AcDbVisualStyle
  2
Facepattern
 70
    15
 71
     2
 72
     2
 73
     0
 90
        0
 40
-0.6
 41
-30.0
 62
     5
 63
     7
421
 16777215
 74
     1
 91
        4
 64
     7
 65
   257
 75
     1
175
     1
 42
1.0
 92
        8
 66
     7
 43
1.0
 76
     1
 77
     6
 78
     2
 67
     7
 79
     5
170
     0
171
     0
290
     0
174
     0
 93
        1
 44
0.0
173
     0
291
     1
 45
0.0
1001
ACAD
1000
AcDbSavedByObjectVersion
1070
     0
  0
VISUALSTYLE
  5
2B
102
{ACAD_REACTORS
330
2A
102
}
102
{ACAD_XDICTIONARY
360
237
102
}
330
2A
100
AcDbVisualStyle
  2
Flat
 70
     0
 71
     2
 72
     1
 73
     1
 90
        2
 40
-0.6
 41
30.0
 62
     5
 63
     7
421
 16777215
 74
     0
 91
        4
 64
     7
 65
   257
 75
     1
175
     1
 42
1.0
 92
        8
 66
     7
 43
1.0
 76
     1
 77
     6
 78
     2
 67
     7
 79
     5
170
     0
171
     0
290
     0
174
     0
 93
       13
 44
0.0
173
     0
291
     1
 45
0.0
1001
ACAD
1000
AcDbSavedByObjectVersion
1070
     0
  0
VISUALSTYLE
  5
2C
102
{ACAD_REACTORS
330
2A
102
}
102
{ACAD_XDICTIONARY
360
239
102
}
330
2A
100
AcDbVisualStyle
  2
FlatWithEdges
 70
     1
 71
     2
 72
     1
 73
     1
 90
        2
 40
-0.6
 41
30.0
 62
     5
 63
     7
421
 16777215
 74
     1
 91
        4
 64
     7
 65
   257
 75
     1
175
     1
 42
1.0
 92
        0
 66
   257
 43
1.0
 76
     1
 77
     6
 78
     2
 67
     7
 79
     5
170
     0
171
     0
290
     0
174
     0
 93
       13
 44
0.0
173
     0
291
     1
 45
0.0
1001
ACAD
1000
AcDbSavedByObjectVersion
1070
     0
  0
VISUALSTYLE
  5
2D
102
{ACAD_REACTORS
330
2A
102
}
102
{ACAD_XDICTIONARY
360
23B
102
}
330
2A
100
AcDbVisualStyle
  2
Gouraud
 70
     2
 71
     2
 72
     2
 73
     1
 90
        2
 40
-0.6
 41
30.0
 62
     5
 63
     7
421
 16777215
 74
     0
 91
        4
 64
     7
 65
   257
 75
     1
175
     1
 42
1.0
 92
        0
 66
     7
 43
1.0
 76
     1
 77
     6
 78
     2
 67
     7
 79
     5
170
     0
171
     0
290
     0
174
     0
 93
       13
 44
0.0
173
     0
291
     1
 45
0.0
1001
ACAD
1000
AcDbSavedByObjectVersion
1070
     0
  0
VISUALSTYLE
  5
2E
102
{ACAD_REACTORS
330
2A
102
}
102
{ACAD_XDICTIONARY
360
23D
102
}
330
2A
100
AcDbVisualStyle
  2
GouraudWithEdges
 70
     3
 71
     2
 72
     2
 73
     1
 90
        2
 40
-0.6
 41
30.0
 62
     5
 63
     7
421
 16777215
 74
     1
 91
        4
 64
     7
 65
   257
 75
     1
175
     1
 42
1.0
 92
        0
 66
   257
 43
1.0
 76
     1
 77
     6
 78
     2
 67
     7
 79
     5
170
     0
171
     0
290
     0
174
     0
 93
       13
 44
0.0
173
     0
291
     1
 45
0.0
1001
ACAD
1000
AcDbSavedByObjectVersion
1070
     0
  0
VISUALSTYLE
  5
38
102
{ACAD_REACTORS
330
2A
102
}
102
{ACAD_XDICTIONARY
360
251
102
}
330
2A
100
AcDbVisualStyle
  2
Linepattern
 70
    14
 71
     2
 72
     2
 73
     0
 90
        0
 40
-0.6
 41
-30.0
 62
     5
 63
     7
421
 16777215
 74
     1
 91
        4
 64
     7
 65
   257
 75
     7
175
     7
 42
1.0
 92
        8
 66
     7
 43
1.0
 76
     1
 77
     6
 78
     2
 67
     7
 79
     5
170
     0
171
     0
290
     0
174
     0
 93
        1
 44
0.0
173
     0
291
     1
 45
0.0
1001
ACAD
1000
AcDbSavedByObjectVersion
1070
     0
  0
VISUALSTYLE
  5
33
102
{ACAD_REACTORS
330
2A
102
}
102
{ACAD_XDICTIONARY
360
247
102
}
330
2A
100
AcDbVisualStyle
  2
Realistic
 70
     8
 71
     2
 72
     2
 73
     0
 90
        0
 40
-0.6
 41
-30.0
 62
     5
 63
     7
421
 16777215
 74
     1
 91
        0
 64
     7
 65
   257
 75
     1
175
     1
 42
1.0
 92
        8
 66
     8
424
  7895160
 43
1.0
 76
     1
 77
     6
 78
     2
 67
     7
 79
     5
170
     0
171
     0
290
     0
174
     0
 93
       13
 44
0.0
173
     0
291
     0
 45
0.0
1001
ACAD
1000
AcDbSavedByObjectVersion
1070
     0
  0
VISUALSTYLE
  5
37
102
{ACAD_REACTORS
330
2A
102
}
102
{ACAD_XDICTIONARY
360
24F
102
}
330
2A
100
AcDbVisualStyle
  2
Thicken
 70
    13
 71
     2
 72
     2
 73
     0
 90
        0
 40
-0.6
 41
-30.0
 62
     5
 63
     7
421
 16777215
 74
     1
 91
        4
 64
     7
 65
   257
 75
     1
175
     1
 42
1.0
 92
       12
 66
     7
 43
1.0
 76
     1
 77
     6
 78
     2
 67
     7
 79
     5
170
     0
171
     0
290
     0
174
     0
 93
        1
 44
0.0
173
     0
291
     1
 45
0.0
1001
ACAD
1000
AcDbSavedByObjectVersion
1070
     0
  0
DICTIONARYVAR
  5
260
102
{ACAD_REACTORS
330
25F
102
}
330
25F
100
DictionaryVariables
280
     0
  1
0
  0
DICTIONARY
  5
259
330
3D
100
AcDbDictionary
280
     1
281
     1
  3
ACAD_XREC_ROUNDTRIP
360
25A
  0
DICTIONARY
  5
257
330
3C
100
AcDbDictionary
280
     1
281
     1
  3
ACAD_XREC_ROUNDTRIP
360
258
  0
DICTIONARY
  5
25B
330
3E
100
AcDbDictionary
280
     1
281
     1
  3
ACAD_XREC_ROUNDTRIP
360
25C
  0
DICTIONARY
  5
23F
330
2F
100
AcDbDictionary
280
     1
281
     1
  3
ACAD_XREC_ROUNDTRIP
360
240
  0
DICTIONARY
  5
243
330
31
100
AcDbDictionary
280
     1
281
     1
  3
ACAD_XREC_ROUNDTRIP
360
244
  0
DICTIONARY
  5
241
330
30
100
AcDbDictionary
280
     1
281
     1
  3
ACAD_XREC_ROUNDTRIP
360
242
  0
DICTIONARY
  5
245
330
32
100
AcDbDictionary
280
     1
281
     1
  3
ACAD_XREC_ROUNDTRIP
360
246
  0
DICTIONARY
  5
24D
330
36
100
AcDbDictionary
280
     1
281
     1
  3
ACAD_XREC_ROUNDTRIP
360
24E
  0
DICTIONARY
  5
255
330
3A
100
AcDbDictionary
280
     1
281
     1
  3
ACAD_XREC_ROUNDTRIP
360
256
  0
DICTIONARY
  5
249
330
34
100
AcDbDictionary
280
     1
281
     1
  3
ACAD_XREC_ROUNDTRIP
360
24A
  0
DICTIONARY
  5
24B
330
35
100
AcDbDictionary
280
     1
281
     1
  3
ACAD_XREC_ROUNDTRIP
360
24C
  0
DICTIONARY
  5
253
330
39
100
AcDbDictionary
280
     1
281
     1
  3
ACAD_XREC_ROUNDTRIP
360
254
  0
DICTIONARY
  5
237
330
2B
100
AcDbDictionary
280
     1
281
     1
  3
ACAD_XREC_ROUNDTRIP
360
238
  0
DICTIONARY
  5
239
330
2C
100
AcDbDictionary
280
     1
281
     1
  3
ACAD_XREC_ROUNDTRIP
360
23A
  0
DICTIONARY
  5
23B
330
2D
100
AcDbDictionary
280
     1
281
     1
  3
ACAD_XREC_ROUNDTRIP
360
23C
  0
DICTIONARY
  5
23D
330
2E
100
AcDbDictionary
280
     1
281
     1
  3
ACAD_XREC_ROUNDTRIP
360
23E
  0
DICTIONARY
  5
251
330
38
100
AcDbDictionary
280
     1
281
     1
  3
ACAD_XREC_ROUNDTRIP
360
252
  0
DICTIONARY
  5
247
330
33
100
AcDbDictionary
280
     1
281
     1
  3
ACAD_XREC_ROUNDTRIP
360
248
  0
DICTIONARY
  5
24F
330
37
100
AcDbDictionary
280
     1
281
     1
  3
ACAD_XREC_ROUNDTRIP
360
250
  0
XRECORD
  5
25A
102
{ACAD_REACTORS
330
259
102
}
330
259
100
AcDbXrecord
280
     1
102
MATERIAL
148
0.0
149
0.0
149
0.0
 93
        0
 94
      127
282
     0
 72
     1
 77
     1
171
     1
175
     1
179
     1
273
     0
  0
XRECORD
  5
258
102
{ACAD_REACTORS
330
257
102
}
330
257
100
AcDbXrecord
280
     1
102
MATERIAL
148
0.0
149
0.0
149
0.0
 93
        0
 94
      127
282
     0
 72
     1
 77
     1
171
     1
175
     1
179
     1
273
     0
  0
XRECORD
  5
25C
102
{ACAD_REACTORS
330
25B
102
}
330
25B
100
AcDbXrecord
280
     1
102
MATERIAL
148
0.0
149
0.0
149
0.0
 93
        0
 94
      127
282
     0
 72
     1
 77
     1
171
     1
175
     1
179
     1
273
     0
  0
XRECORD
  5
240
102
{ACAD_REACTORS
330
23F
102
}
330
23F
100
AcDbXrecord
280
     1
102
RTVSPropertyOp0
 70
     1
102
RTVSPropertyOp1
 70
     1
102
RTVSPropertyOp2
 70
     1
102
RTVSPropertyOp3
 70
     1
102
RTVSPropertyOp4
 70
     1
102
RTVSPropertyOp5
 70
     1
102
RTVSPropertyOp6
 70
     1
102
RTVSPropertyOp7
 70
     1
102
RTVSPropertyOp8
 70
     1
102
RTVSPropertyOp9
 70
     1
102
RTVSPropertyOp10
 70
     1
102
RTVSPropertyOp11
 70
     1
102
RTVSPropertyOp12
 70
     1
102
RTVSPropertyOp13
 70
     1
102
RTVSPropertyOp14
 70
     1
102
RTVSPropertyOp15
 70
     1
102
RTVSPropertyOp16
 70
     1
102
RTVSPropertyOp17
 70
     1
102
RTVSPropertyOp18
 70
     1
102
RTVSPropertyOp19
 70
     1
102
RTVSPropertyOp20
 70
     1
102
RTVSPropertyOp21
 70
     1
102
RTVSPropertyOp22
 70
     1
102
RTVSPropertyOp23
 70
     1
102
RTVSPropertyOp24
 70
     1
102
RTVSPropertyOp25
 70
     1
102
RTVSPropertyOp26
 70
     1
102
RTVSPropertyOp27
 70
     1
102
RTVSPropertyOp28
 70
     1
102
RTVSPropertyOp29
 70
     1
102
RTVSPropertyOp30
 70
     1
102
RTVSPropertyOp31
 70
     1
102
RTVSPropertyOp32
 70
     1
  0
XRECORD
  5
244
102
{ACAD_REACTORS
330
243
102
}
330
243
100
AcDbXrecord
280
     1
102
RTVSPropertyOp0
 70
     1
102
RTVSPropertyOp1
 70
     1
102
RTVSPropertyOp2
 70
     1
102
RTVSPropertyOp3
 70
     1
102
RTVSPropertyOp4
 70
     1
102
RTVSPropertyOp5
 70
     1
102
RTVSPropertyOp6
 70
     1
102
RTVSPropertyOp7
 70
     1
102
RTVSPropertyOp8
 70
     1
102
RTVSPropertyOp9
 70
     1
102
RTVSPropertyOp10
 70
     1
102
RTVSPropertyOp11
 70
     1
102
RTVSPropertyOp12
 70
     1
102
RTVSPropertyOp13
 70
     1
102
RTVSPropertyOp14
 70
     1
102
RTVSPropertyOp15
 70
     1
102
RTVSPropertyOp16
 70
     1
102
RTVSPropertyOp17
 70
     1
102
RTVSPropertyOp18
 70
     1
102
RTVSPropertyOp19
 70
     1
102
RTVSPropertyOp20
 70
     1
102
RTVSPropertyOp21
 70
     1
102
RTVSPropertyOp22
 70
     1
102
RTVSPropertyOp23
 70
     1
102
RTVSPropertyOp24
 70
     1
102
RTVSPropertyOp25
 70
     1
102
RTVSPropertyOp26
 70
     1
102
RTVSPropertyOp27
 70
     1
102
RTVSPropertyOp28
 70
     1
102
RTVSPropertyOp29
 70
     1
102
RTVSPropertyOp30
 70
     1
102
RTVSPropertyOp31
 70
     1
102
RTVSPropertyOp32
 70
     1
  0
XRECORD
  5
242
102
{ACAD_REACTORS
330
241
102
}
330
241
100
AcDbXrecord
280
     1
102
RTVSPropertyOp0
 70
     1
102
RTVSPropertyOp1
 70
     1
102
RTVSPropertyOp2
 70
     1
102
RTVSPropertyOp3
 70
     1
102
RTVSPropertyOp4
 70
     1
102
RTVSPropertyOp5
 70
     1
102
RTVSPropertyOp6
 70
     1
102
RTVSPropertyOp7
 70
     1
102
RTVSPropertyOp8
 70
     1
102
RTVSPropertyOp9
 70
     1
102
RTVSPropertyOp10
 70
     1
102
RTVSPropertyOp11
 70
     1
102
RTVSPropertyOp12
 70
     1
102
RTVSPropertyOp13
 70
     1
102
RTVSPropertyOp14
 70
     1
102
RTVSPropertyOp15
 70
     1
102
RTVSPropertyOp16
 70
     1
102
RTVSPropertyOp17
 70
     1
102
RTVSPropertyOp18
 70
     1
102
RTVSPropertyOp19
 70
     1
102
RTVSPropertyOp20
 70
     1
102
RTVSPropertyOp21
 70
     1
102
RTVSPropertyOp22
 70
     1
102
RTVSPropertyOp23
 70
     1
102
RTVSPropertyOp24
 70
     1
102
RTVSPropertyOp25
 70
     1
102
RTVSPropertyOp26
 70
     1
102
RTVSPropertyOp27
 70
     1
102
RTVSPropertyOp28
 70
     1
102
RTVSPropertyOp29
 70
     1
102
RTVSPropertyOp30
 70
     1
102
RTVSPropertyOp31
 70
     1
102
RTVSPropertyOp32
 70
     1
  0
XRECORD
  5
246
102
{ACAD_REACTORS
330
245
102
}
330
245
100
AcDbXrecord
280
     1
102
RTVSPropertyOp0
 70
     1
102
RTVSPropertyOp1
 70
     1
102
RTVSPropertyOp2
 70
     1
102
RTVSPropertyOp3
 70
     1
102
RTVSPropertyOp4
 70
     1
102
RTVSPropertyOp5
 70
     1
102
RTVSPropertyOp6
 70
     1
102
RTVSPropertyOp7
 70
     1
102
RTVSPropertyOp8
 70
     1
102
RTVSPropertyOp9
 70
     1
102
RTVSPropertyOp10
 70
     1
102
RTVSPropertyOp11
 70
     1
102
RTVSPropertyOp12
 70
     1
102
RTVSPropertyOp13
 70
     1
102
RTVSPropertyOp14
 70
     1
102
RTVSPropertyOp15
 70
     1
102
RTVSPropertyOp16
 70
     1
102
RTVSPropertyOp17
 70
     1
102
RTVSPropertyOp18
 70
     1
102
RTVSPropertyOp19
 70
     1
102
RTVSPropertyOp20
 70
     1
102
RTVSPropertyOp21
 70
     1
102
RTVSPropertyOp22
 70
     1
102
RTVSPropertyOp23
 70
     1
102
RTVSPropertyOp24
 70
     1
102
RTVSPropertyOp25
 70
     1
102
RTVSPropertyOp26
 70
     1
102
RTVSPropertyOp27
 70
     1
102
RTVSPropertyOp28
 70
     1
102
RTVSPropertyOp29
 70
     1
102
RTVSPropertyOp30
 70
     1
102
RTVSPropertyOp31
 70
     1
102
RTVSPropertyOp32
 70
     1
  0
XRECORD
  5
24E
102
{ACAD_REACTORS
330
24D
102
}
330
24D
100
AcDbXrecord
280
     1
102
RTVSPropertyOp0
 70
     1
102
RTVSPropertyOp1
 70
     1
102
RTVSPropertyOp2
 70
     1
102
RTVSPropertyOp3
 70
     1
102
RTVSPropertyOp4
 70
     1
102
RTVSPropertyOp5
 70
     1
102
RTVSPropertyOp6
 70
     1
102
RTVSPropertyOp7
 70
     1
102
RTVSPropertyOp8
 70
     1
102
RTVSPropertyOp9
 70
     1
102
RTVSPropertyOp10
 70
     1
102
RTVSPropertyOp11
 70
     1
102
RTVSPropertyOp12
 70
     1
102
RTVSPropertyOp13
 70
     1
102
RTVSPropertyOp14
 70
     1
102
RTVSPropertyOp15
 70
     1
102
RTVSPropertyOp16
 70
     1
102
RTVSPropertyOp17
 70
     1
102
RTVSPropertyOp18
 70
     1
102
RTVSPropertyOp19
 70
     1
102
RTVSPropertyOp20
 70
     1
102
RTVSPropertyOp21
 70
     1
102
RTVSPropertyOp22
 70
     1
102
RTVSPropertyOp23
 70
     1
102
RTVSPropertyOp24
 70
     1
102
RTVSPropertyOp25
 70
     1
102
RTVSPropertyOp26
 70
     1
102
RTVSPropertyOp27
 70
     1
102
RTVSPropertyOp28
 70
     1
102
RTVSPropertyOp29
 70
     1
102
RTVSPropertyOp30
 70
     1
102
RTVSPropertyOp31
 70
     1
102
RTVSPropertyOp32
 70
     1
  0
XRECORD
  5
256
102
{ACAD_REACTORS
330
255
102
}
330
255
100
AcDbXrecord
280
     1
102
RTVSPropertyOp0
 70
     1
102
RTVSPropertyOp1
 70
     1
102
RTVSPropertyOp2
 70
     1
102
RTVSPropertyOp3
 70
     1
102
RTVSPropertyOp4
 70
     1
102
RTVSPropertyOp5
 70
     1
102
RTVSPropertyOp6
 70
     1
102
RTVSPropertyOp7
 70
     1
102
RTVSPropertyOp8
 70
     1
102
RTVSPropertyOp9
 70
     1
102
RTVSPropertyOp10
 70
     1
102
RTVSPropertyOp11
 70
     1
102
RTVSPropertyOp12
 70
     1
102
RTVSPropertyOp13
 70
     1
102
RTVSPropertyOp14
 70
     1
102
RTVSPropertyOp15
 70
     1
102
RTVSPropertyOp16
 70
     1
102
RTVSPropertyOp17
 70
     1
102
RTVSPropertyOp18
 70
     1
102
RTVSPropertyOp19
 70
     1
102
RTVSPropertyOp20
 70
     1
102
RTVSPropertyOp21
 70
     1
102
RTVSPropertyOp22
 70
     1
102
RTVSPropertyOp23
 70
     1
102
RTVSPropertyOp24
 70
     1
102
RTVSPropertyOp25
 70
     1
102
RTVSPropertyOp26
 70
     1
102
RTVSPropertyOp27
 70
     1
102
RTVSPropertyOp28
 70
     1
102
RTVSPropertyOp29
 70
     1
102
RTVSPropertyOp30
 70
     1
102
RTVSPropertyOp31
 70
     1
102
RTVSPropertyOp32
 70
     1
  0
XRECORD
  5
24A
102
{ACAD_REACTORS
330
249
102
}
330
249
100
AcDbXrecord
280
     1
102
RTVSPropertyOp0
 70
     1
102
RTVSPropertyOp1
 70
     1
102
RTVSPropertyOp2
 70
     1
102
RTVSPropertyOp3
 70
     1
102
RTVSPropertyOp4
 70
     1
102
RTVSPropertyOp5
 70
     1
102
RTVSPropertyOp6
 70
     1
102
RTVSPropertyOp7
 70
     1
102
RTVSPropertyOp8
 70
     1
102
RTVSPropertyOp9
 70
     1
102
RTVSPropertyOp10
 70
     1
102
RTVSPropertyOp11
 70
     1
102
RTVSPropertyOp12
 70
     1
102
RTVSPropertyOp13
 70
     1
102
RTVSPropertyOp14
 70
     1
102
RTVSPropertyOp15
 70
     1
102
RTVSPropertyOp16
 70
     1
102
RTVSPropertyOp17
 70
     1
102
RTVSPropertyOp18
 70
     1
102
RTVSPropertyOp19
 70
     1
102
RTVSPropertyOp20
 70
     1
102
RTVSPropertyOp21
 70
     1
102
RTVSPropertyOp22
 70
     1
102
RTVSPropertyOp23
 70
     1
102
RTVSPropertyOp24
 70
     1
102
RTVSPropertyOp25
 70
     1
102
RTVSPropertyOp26
 70
     1
102
RTVSPropertyOp27
 70
     1
102
RTVSPropertyOp28
 70
     1
102
RTVSPropertyOp29
 70
     1
102
RTVSPropertyOp30
 70
     1
102
RTVSPropertyOp31
 70
     1
102
RTVSPropertyOp32
 70
     1
  0
XRECORD
  5
24C
102
{ACAD_REACTORS
330
24B
102
}
330
24B
100
AcDbXrecord
280
     1
102
RTVSPropertyOp0
 70
     1
102
RTVSPropertyOp1
 70
     1
102
RTVSPropertyOp2
 70
     1
102
RTVSPropertyOp3
 70
     1
102
RTVSPropertyOp4
 70
     1
102
RTVSPropertyOp5
 70
     1
102
RTVSPropertyOp6
 70
     1
102
RTVSPropertyOp7
 70
     1
102
RTVSPropertyOp8
 70
     1
102
RTVSPropertyOp9
 70
     1
102
RTVSPropertyOp10
 70
     1
102
RTVSPropertyOp11
 70
     1
102
RTVSPropertyOp12
 70
     1
102
RTVSPropertyOp13
 70
     1
102
RTVSPropertyOp14
 70
     1
102
RTVSPropertyOp15
 70
     1
102
RTVSPropertyOp16
 70
     1
102
RTVSPropertyOp17
 70
     1
102
RTVSPropertyOp18
 70
     1
102
RTVSPropertyOp19
 70
     1
102
RTVSPropertyOp20
 70
     1
102
RTVSPropertyOp21
 70
     1
102
RTVSPropertyOp22
 70
     1
102
RTVSPropertyOp23
 70
     1
102
RTVSPropertyOp24
 70
     1
102
RTVSPropertyOp25
 70
     1
102
RTVSPropertyOp26
 70
     1
102
RTVSPropertyOp27
 70
     1
102
RTVSPropertyOp28
 70
     1
102
RTVSPropertyOp29
 70
     1
102
RTVSPropertyOp30
 70
     1
102
RTVSPropertyOp31
 70
     1
102
RTVSPropertyOp32
 70
     1
  0
XRECORD
  5
254
102
{ACAD_REACTORS
330
253
102
}
330
253
100
AcDbXrecord
280
     1
102
RTVSPropertyOp0
 70
     1
102
RTVSPropertyOp1
 70
     1
102
RTVSPropertyOp2
 70
     1
102
RTVSPropertyOp3
 70
     1
102
RTVSPropertyOp4
 70
     1
102
RTVSPropertyOp5
 70
     1
102
RTVSPropertyOp6
 70
     1
102
RTVSPropertyOp7
 70
     1
102
RTVSPropertyOp8
 70
     1
102
RTVSPropertyOp9
 70
     1
102
RTVSPropertyOp10
 70
     1
102
RTVSPropertyOp11
 70
     1
102
RTVSPropertyOp12
 70
     1
102
RTVSPropertyOp13
 70
     1
102
RTVSPropertyOp14
 70
     1
102
RTVSPropertyOp15
 70
     1
102
RTVSPropertyOp16
 70
     1
102
RTVSPropertyOp17
 70
     1
102
RTVSPropertyOp18
 70
     1
102
RTVSPropertyOp19
 70
     1
102
RTVSPropertyOp20
 70
     1
102
RTVSPropertyOp21
 70
     1
102
RTVSPropertyOp22
 70
     1
102
RTVSPropertyOp23
 70
     1
102
RTVSPropertyOp24
 70
     1
102
RTVSPropertyOp25
 70
     1
102
RTVSPropertyOp26
 70
     1
102
RTVSPropertyOp27
 70
     1
102
RTVSPropertyOp28
 70
     1
102
RTVSPropertyOp29
 70
     1
102
RTVSPropertyOp30
 70
     1
102
RTVSPropertyOp31
 70
     1
102
RTVSPropertyOp32
 70
     1
  0
XRECORD
  5
238
102
{ACAD_REACTORS
330
237
102
}
330
237
100
AcDbXrecord
280
     1
102
RTVSPropertyOp0
 70
     1
102
RTVSPropertyOp1
 70
     1
102
RTVSPropertyOp2
 70
     1
102
RTVSPropertyOp3
 70
     1
102
RTVSPropertyOp4
 70
     1
102
RTVSPropertyOp5
 70
     1
102
RTVSPropertyOp6
 70
     1
102
RTVSPropertyOp7
 70
     1
102
RTVSPropertyOp8
 70
     1
102
RTVSPropertyOp9
 70
     1
102
RTVSPropertyOp10
 70
     1
102
RTVSPropertyOp11
 70
     1
102
RTVSPropertyOp12
 70
     1
102
RTVSPropertyOp13
 70
     1
102
RTVSPropertyOp14
 70
     1
102
RTVSPropertyOp15
 70
     1
102
RTVSPropertyOp16
 70
     1
102
RTVSPropertyOp17
 70
     1
102
RTVSPropertyOp18
 70
     1
102
RTVSPropertyOp19
 70
     1
102
RTVSPropertyOp20
 70
     1
102
RTVSPropertyOp21
 70
     1
102
RTVSPropertyOp22
 70
     1
102
RTVSPropertyOp23
 70
     1
102
RTVSPropertyOp24
 70
     1
102
RTVSPropertyOp25
 70
     1
102
RTVSPropertyOp26
 70
     1
102
RTVSPropertyOp27
 70
     1
102
RTVSPropertyOp28
 70
     1
102
RTVSPropertyOp29
 70
     1
102
RTVSPropertyOp30
 70
     1
102
RTVSPropertyOp31
 70
     1
102
RTVSPropertyOp32
 70
     1
  0
XRECORD
  5
23A
102
{ACAD_REACTORS
330
239
102
}
330
239
100
AcDbXrecord
280
     1
102
RTVSPropertyOp0
 70
     1
102
RTVSPropertyOp1
 70
     1
102
RTVSPropertyOp2
 70
     1
102
RTVSPropertyOp3
 70
     1
102
RTVSPropertyOp4
 70
     1
102
RTVSPropertyOp5
 70
     1
102
RTVSPropertyOp6
 70
     1
102
RTVSPropertyOp7
 70
     1
102
RTVSPropertyOp8
 70
     1
102
RTVSPropertyOp9
 70
     1
102
RTVSPropertyOp10
 70
     1
102
RTVSPropertyOp11
 70
     1
102
RTVSPropertyOp12
 70
     1
102
RTVSPropertyOp13
 70
     1
102
RTVSPropertyOp14
 70
     1
102
RTVSPropertyOp15
 70
     1
102
RTVSPropertyOp16
 70
     1
102
RTVSPropertyOp17
 70
     1
102
RTVSPropertyOp18
 70
     1
102
RTVSPropertyOp19
 70
     1
102
RTVSPropertyOp20
 70
     1
102
RTVSPropertyOp21
 70
     1
102
RTVSPropertyOp22
 70
     1
102
RTVSPropertyOp23
 70
     1
102
RTVSPropertyOp24
 70
     1
102
RTVSPropertyOp25
 70
     1
102
RTVSPropertyOp26
 70
     1
102
RTVSPropertyOp27
 70
     1
102
RTVSPropertyOp28
 70
     1
102
RTVSPropertyOp29
 70
     1
102
RTVSPropertyOp30
 70
     1
102
RTVSPropertyOp31
 70
     1
102
RTVSPropertyOp32
 70
     1
  0
XRECORD
  5
23C
102
{ACAD_REACTORS
330
23B
102
}
330
23B
100
AcDbXrecord
280
     1
102
RTVSPropertyOp0
 70
     1
102
RTVSPropertyOp1
 70
     1
102
RTVSPropertyOp2
 70
     1
102
RTVSPropertyOp3
 70
     1
102
RTVSPropertyOp4
 70
     1
102
RTVSPropertyOp5
 70
     1
102
RTVSPropertyOp6
 70
     1
102
RTVSPropertyOp7
 70
     1
102
RTVSPropertyOp8
 70
     1
102
RTVSPropertyOp9
 70
     1
102
RTVSPropertyOp10
 70
     1
102
RTVSPropertyOp11
 70
     1
102
RTVSPropertyOp12
 70
     1
102
RTVSPropertyOp13
 70
     1
102
RTVSPropertyOp14
 70
     1
102
RTVSPropertyOp15
 70
     1
102
RTVSPropertyOp16
 70
     1
102
RTVSPropertyOp17
 70
     1
102
RTVSPropertyOp18
 70
     1
102
RTVSPropertyOp19
 70
     1
102
RTVSPropertyOp20
 70
     1
102
RTVSPropertyOp21
 70
     1
102
RTVSPropertyOp22
 70
     1
102
RTVSPropertyOp23
 70
     1
102
RTVSPropertyOp24
 70
     1
102
RTVSPropertyOp25
 70
     1
102
RTVSPropertyOp26
 70
     1
102
RTVSPropertyOp27
 70
     1
102
RTVSPropertyOp28
 70
     1
102
RTVSPropertyOp29
 70
     1
102
RTVSPropertyOp30
 70
     1
102
RTVSPropertyOp31
 70
     1
102
RTVSPropertyOp32
 70
     1
  0
XRECORD
  5
23E
102
{ACAD_REACTORS
330
23D
102
}
330
23D
100
AcDbXrecord
280
     1
102
RTVSPropertyOp0
 70
     1
102
RTVSPropertyOp1
 70
     1
102
RTVSPropertyOp2
 70
     1
102
RTVSPropertyOp3
 70
     1
102
RTVSPropertyOp4
 70
     1
102
RTVSPropertyOp5
 70
     1
102
RTVSPropertyOp6
 70
     1
102
RTVSPropertyOp7
 70
     1
102
RTVSPropertyOp8
 70
     1
102
RTVSPropertyOp9
 70
     1
102
RTVSPropertyOp10
 70
     1
102
RTVSPropertyOp11
 70
     1
102
RTVSPropertyOp12
 70
     1
102
RTVSPropertyOp13
 70
     1
102
RTVSPropertyOp14
 70
     1
102
RTVSPropertyOp15
 70
     1
102
RTVSPropertyOp16
 70
     1
102
RTVSPropertyOp17
 70
     1
102
RTVSPropertyOp18
 70
     1
102
RTVSPropertyOp19
 70
     1
102
RTVSPropertyOp20
 70
     1
102
RTVSPropertyOp21
 70
     1
102
RTVSPropertyOp22
 70
     1
102
RTVSPropertyOp23
 70
     1
102
RTVSPropertyOp24
 70
     1
102
RTVSPropertyOp25
 70
     1
102
RTVSPropertyOp26
 70
     1
102
RTVSPropertyOp27
 70
     1
102
RTVSPropertyOp28
 70
     1
102
RTVSPropertyOp29
 70
     1
102
RTVSPropertyOp30
 70
     1
102
RTVSPropertyOp31
 70
     1
102
RTVSPropertyOp32
 70
     1
  0
XRECORD
  5
252
102
{ACAD_REACTORS
330
251
102
}
330
251
100
AcDbXrecord
280
     1
102
RTVSPropertyOp0
 70
     1
102
RTVSPropertyOp1
 70
     1
102
RTVSPropertyOp2
 70
     1
102
RTVSPropertyOp3
 70
     1
102
RTVSPropertyOp4
 70
     1
102
RTVSPropertyOp5
 70
     1
102
RTVSPropertyOp6
 70
     1
102
RTVSPropertyOp7
 70
     1
102
RTVSPropertyOp8
 70
     1
102
RTVSPropertyOp9
 70
     1
102
RTVSPropertyOp10
 70
     1
102
RTVSPropertyOp11
 70
     1
102
RTVSPropertyOp12
 70
     1
102
RTVSPropertyOp13
 70
     1
102
RTVSPropertyOp14
 70
     1
102
RTVSPropertyOp15
 70
     1
102
RTVSPropertyOp16
 70
     1
102
RTVSPropertyOp17
 70
     1
102
RTVSPropertyOp18
 70
     1
102
RTVSPropertyOp19
 70
     1
102
RTVSPropertyOp20
 70
     1
102
RTVSPropertyOp21
 70
     1
102
RTVSPropertyOp22
 70
     1
102
RTVSPropertyOp23
 70
     1
102
RTVSPropertyOp24
 70
     1
102
RTVSPropertyOp25
 70
     1
102
RTVSPropertyOp26
 70
     1
102
RTVSPropertyOp27
 70
     1
102
RTVSPropertyOp28
 70
     1
102
RTVSPropertyOp29
 70
     1
102
RTVSPropertyOp30
 70
     1
102
RTVSPropertyOp31
 70
     1
102
RTVSPropertyOp32
 70
     1
  0
XRECORD
  5
248
102
{ACAD_REACTORS
330
247
102
}
330
247
100
AcDbXrecord
280
     1
102
RTVSPropertyOp0
 70
     1
102
RTVSPropertyOp1
 70
     1
102
RTVSPropertyOp2
 70
     1
102
RTVSPropertyOp3
 70
     1
102
RTVSPropertyOp4
 70
     1
102
RTVSPropertyOp5
 70
     1
102
RTVSPropertyOp6
 70
     1
102
RTVSPropertyOp7
 70
     1
102
RTVSPropertyOp8
 70
     1
102
RTVSPropertyOp9
 70
     1
102
RTVSPropertyOp10
 70
     1
102
RTVSPropertyOp11
 70
     1
102
RTVSPropertyOp12
 70
     1
102
RTVSPropertyOp13
 70
     1
102
RTVSPropertyOp14
 70
     1
102
RTVSPropertyOp15
 70
     1
102
RTVSPropertyOp16
 70
     1
102
RTVSPropertyOp17
 70
     1
102
RTVSPropertyOp18
 70
     1
102
RTVSPropertyOp19
 70
     1
102
RTVSPropertyOp20
 70
     1
102
RTVSPropertyOp21
 70
     1
102
RTVSPropertyOp22
 70
     1
102
RTVSPropertyOp23
 70
     1
102
RTVSPropertyOp24
 70
     1
102
RTVSPropertyOp25
 70
     1
102
RTVSPropertyOp26
 70
     1
102
RTVSPropertyOp27
 70
     1
102
RTVSPropertyOp28
 70
     1
102
RTVSPropertyOp29
 70
     1
102
RTVSPropertyOp30
 70
     1
102
RTVSPropertyOp31
 70
     1
102
RTVSPropertyOp32
 70
     1
  0
XRECORD
  5
250
102
{ACAD_REACTORS
330
24F
102
}
330
24F
100
AcDbXrecord
280
     1
102
RTVSPropertyOp0
 70
     1
102
RTVSPropertyOp1
 70
     1
102
RTVSPropertyOp2
 70
     1
102
RTVSPropertyOp3
 70
     1
102
RTVSPropertyOp4
 70
     1
102
RTVSPropertyOp5
 70
     1
102
RTVSPropertyOp6
 70
     1
102
RTVSPropertyOp7
 70
     1
102
RTVSPropertyOp8
 70
     1
102
RTVSPropertyOp9
 70
     1
102
RTVSPropertyOp10
 70
     1
102
RTVSPropertyOp11
 70
     1
102
RTVSPropertyOp12
 70
     1
102
RTVSPropertyOp13
 70
     1
102
RTVSPropertyOp14
 70
     1
102
RTVSPropertyOp15
 70
     1
102
RTVSPropertyOp16
 70
     1
102
RTVSPropertyOp17
 70
     1
102
RTVSPropertyOp18
 70
     1
102
RTVSPropertyOp19
 70
     1
102
RTVSPropertyOp20
 70
     1
102
RTVSPropertyOp21
 70
     1
102
RTVSPropertyOp22
 70
     1
102
RTVSPropertyOp23
 70
     1
102
RTVSPropertyOp24
 70
     1
102
RTVSPropertyOp25
 70
     1
102
RTVSPropertyOp26
 70
     1
102
RTVSPropertyOp27
 70
     1
102
RTVSPropertyOp28
 70
     1
102
RTVSPropertyOp29
 70
     1
102
RTVSPropertyOp30
 70
     1
102
RTVSPropertyOp31
 70
     1
102
RTVSPropertyOp32
 70
     1
  0
ENDSEC
  0
EOF
